10 riffs faciles pour débuter la guitare

Voici une sélection de 10 riffs de guitare légendaires. Ces riffs sont assez simples à apprivoiser et conviendront parfaitement aux débutants. Les guitaristes plus aguerris y trouveront également leur bonheur car il est bon de revenir sur les premiers morceaux que nous avons joué.

U2 – Sunday bloody sunday

----------2------------2-----------0------------0------
-------3-----3-----3------3-----3-----3-----3------3---
---4------------2------------0-----------0-------------
-------------------------------------------------------
-------------------------------------------------------
-------------------------------------------------------

Nirvana – Come as you are

-----------------------------------------------
-----------------------------------------------
-----------------------------------------------
-----------------------------------------------
--------------0-----0--------------2--------2--
--0--0--1--2-----2-----2--2--1--0-----0--0-----

The Rolling Stones – Satisfaction

-----------------------------------------------------------
-----------------------------------------------------------
-----------------------------------------------------------
--2--2----2-4-5----5-5-4-4-2-2--2----2-4-5----5-5-4-4-2-2--
--2--2----2-4-5----5-5-4-4-2-2--2----2-4-5----5-5-4-4-2-2--
-----------------------------------------------------------

White Stripes – Seven Nation Army

--------------------------------------
--------------------------------------
--------------------------------------
--------------------------------------
---7----7----10----7----5----3----2---
--------------------------------------

Michael Jackson – Beat it

---------------------------------------------------------------------
---------------------------------------------------------------------
---------------------------------------------------------------------
------------5-2-----4----2--0--0--------------5-2-----4----2--0------
----------2---------------------------------2------------------------
--0-----3----------------------------0----3--------------------------

Marilyn Manson – Sweet Dreams(Capo 3)

--------------------------------------
--------------------------------------
--------------------------------------
-------2----3---2---------------------
---0-0---0----0---0-----3/5-----2/3---
--------------------1-1-----0-0-------

The Beatles- Day Tripper

Riff 1                                Riff 2
-----------------------------        ----------------------------
-----------------------------        ----------------------------
-----------------------------        -----------2-0-----4----0-2-
-----------2---0---4---0-2---        ---------2-------2----2-----
---------2-------2---2-------        -0---3-4--------------------
-0---3-4---------------------        ----------------------------

Joan Jett – I love rock and roll

---------------------------------------------
---------------------------------------------
------------------------2-2-----4-4----------
--2-2-----2-2-----------2-2-----4-4----------
--2-2-----2-2-----------0-0-----2-2----------
--0-0-----0-0-0H3B~-------------------0H3B~--

---------------------------------------------
---------------------------------------------
------------------------2-2-----4-2----------
--2-2-----2-2-----------2-2-----4-2-2--------
--2-2-----2-2-----------0-0-----2-0-2--------
--0-0-----0-0-0H3B~-----------------0--------

Deep Purple – Smoke on the water

------------------------------------------------------
------------------------------------------------------
--0---3---5----0----3---6-5------0---3---5----3----0--
--0---3---5----0----3---6-5------0---3---5----3----0--
------------------------------------------------------
------------------------------------------------------

Nada Surf – Popular

Riff 1
------------------------------------------------
-------0-----------0-----------0--------0-------
-------4-----------4-----------4---------4------
------------------------------------------------
-3--3--------3--3-----0--2--2--------2--2-----0-
-------------------------------------0--0-------
                       
Riff 2
------------------------------------------------
-------------------------------0-----------0----
-------2-----------2-----------4-----------4----
----4-----4-----4-----4-----4-----4-----4-----4-
-3-----------3-----------2-----------2----------
------------------------------------------------

Laisser un commentaire

Votre adresse de messagerie ne sera pas publiée. Les champs obligatoires sont indiqués avec *