Cours de guitare Nouveautés | Top 100 | Tous les accords
# a b c d e f g h i j k l m n o p q r s t u v w x y z demander une tab

Hells bells tab

Tablature gratuite de la chanson “Hells bells” de ACDC.

Clip vidéo


Voir tous les clips AC DC

Tablature, accords, paroles:

Tablature 2 guitares:

Gtr I (E A D G B E) - 'Untitles'
Gtr II (E A D G B E) - 'Untitled'

    Q=95
    Gtr I
    E E E E +E  E E E   +E  E E E +E  E E E
||--------------------|---------------------|
||o-------------------|---------------------|
||----9---7-(7)-----5-|-(5)-----7-(7)-------|
||--------------7-----|-----5---------7-----|
||o-0---0---------0---|-------0---------0-0-|
||--------------------|---------------------|


  +E  E E E +E  E E E   +E  E E E +E  E E E   5x
|---------------------|-----------------------||
|---------------------|----------------------o||
|-----9---7-(7)-----5-|-(5)-----7-(7)---------||
|---------------7-----|-----5---------5-5-----||
|-(0)---0---------0---|-------0-------3-2-0--o||
|---------------------|-----------------------||


  +E  E E E +E  E E E   +E  E E E +E  E E E
|---------------------|---------------------|
|---------------------|---------------------|
|-----9---7-(7)-----5-|-(5)-----7-(7)-------|
|---------------7-----|-----5---------7-----|
|-(0)---0---------0---|-------0---------0-0-|
|---------------------|---------------------|


  +E  E E E +E  E E E   +E  E E E +E  E E E
|-------------------3-|-(3)-3-3-2-(2)-------|
|-----5-------------3-|-(3)-3-3-3-(3)-------|
|---------7-(7)-----0-|-(0)-0-0-2-(2)-------|
|-------7-------7---0-|-(0)-0-0-0-(0)-5-5---|
|-(0)-------------0-2-|-(2)-2-2-0-(0)-3-2-0-|
|-------------------3-|-(3)-3-3-------------|


                     ~~~
  E E E E E E E E   +Q.   E Q  Q    E E E E E E E E   +Q.   E Q  Q
|-----------------|---------------|-----------------|---------------|
|-----------------|---------3--3--|-----------------|---------3--3--|
|---9-7-9---7-5-7-|-(7)-----0--0--|---9-7-9---7-5-7-|-(7)-----0--0--|
|---7-7-7---5-5-7-|-(7)-----------|---7-7-7---5-5-7-|-(7)-----------|
|---------------0-|-(0)---0-3--2--|-0---------------|-------0-3--2--|
|-----------------|---------------|-----------------|---------------|


  E E E E E E E E   Q  E E Q  Q    E E E E E E E E
|-----------------|--------------|-----------------|
|-----------------|--------3--3--|-----------------|
|---9-7-9---7-5-7-|--------0--0--|---9-7-9---7-5-7-|
|---7-7-7---5-5-7-|--------------|---7-7-7---5-5-7-|
|-0---------------|------0-3--2--|-0---------------|
|-----------------|--------------|-----------------|


  Q  E E Q  Q    W                 W
|--------------|-----------------|--------------|
|--------3--3--|-----------------|--------------|
|--------0--0--|-----------------|--------------|
|--------------|-----------------|--------------|
|------0-3--2--|-----------------|--------------|
|--------------|-----------------|--------------|
|
| Gtr II
| W              E E E E E E E E   Q  E E Q  Q
|--------------|-----------------|--------------|
|--------------|-----------------|--------3--3--|
|--------------|---9-7-9---7-5-7-|--------0--0--|
|--------------|---7-7-7---5-5-7-|--------------|
|--------------|-0---------------|------0-3--2--|
|--------------|-----------------|--------------|


  W                 W              E E E E +E  E E E
|-----------------|--------------|-------------------|
|-----------------|--------------|---3-3-3-(3)-3-3-3-|
|-----------------|--------------|---2-0-2-(2)-2-0-2-|
|-----------------|--------------|-------------------|
|-----------------|--------------|-------------------|
|-----------------|--------------|-------------------|
|
| E E E E E E E E   Q  E E Q  Q    W
|-----------------|--------------|-------------------|
|-----------------|--------3--3--|-------------------|
|---9-7-9---7-5-7-|--------0--0--|-------------------|
|---7-7-7---5-5-7-|--------------|-------------------|
|-0---------------|------0-3--2--|-------------------|
|-----------------|--------------|-------------------|


  +E  E E E Q  Q    E E E E +E  E E E   E E E E Q  Q
|--------------3--|-------------------|------------3--|
|-(3)-3-3-3----3--|---3-3-3-(3)-3-3-3-|-3-3-3-3----3--|
|-(2)-2-2-2-5--0--|---2-0-2-(2)-2-0-2-|-2-2-2-2-5--0--|
|-----------5--0--|-------------------|---------5--0--|
|-----------3-----|-------------------|---------3-----|
|--------------3--|-------------------|------------3--|


  E E E E +E  E E E   +E  E E E Q  Q
|-------------------|-----------------|
|---9---9-(9)-9---9-|-(9)-9-----3--2--|
|---9---9-(9)-9---9-|-(9)-9-----2--2--|
|---9---9-(9)-9---9-|-(9)-9-----0--2--|
|-7-7-7-7-(7)-7-7-7-|-(7)-7-7-x-0--0--|
|-0-0-0-0-(0)-0-0-0-|-(0)-0-0-x-------|


  E E E E +E  E E E   +E  E E E Q  Q
|-------------------|-----------3--3--|
|---9---9-(9)-9---9-|-(9)-9-----3--3--|
|---9---9-(9)-9---9-|-(9)-9-----0--0--|
|---9---9-(9)-9---9-|-(9)-9-----0--0--|
|-7-7-7-7-(7)-7-7-7-|-(7)-7-7-7-------|
|-0-0-0-0-(0)-0-0-0-|-(0)-0-0-0-3--3--|


  E E E E +E  E E E   +E  E E E +E  E E E
|-------------------|---------------------|
|-------------------|---------------------|
|---9---7-(7)-----5-|-(5)-----7-(7)-------|
|-------------7-----|-----5---------7-----|
|-0---0---------0---|-------0---------0-0-|
|-------------------|---------------------|


  +E  E E E +E  E E E   +E  E E E +E  E E E
|---------------------|---------------------|
|---------------------|---------------------|
|-----9---7-(7)-----5-|-(5)-----7-(7)-------|
|---------------7-----|-----5---------5-5---|
|-(0)---0---------0---|-------0-------3-2-0-|
|---------------------|---------------------|


  +E  E E E +E  E E E   +E  E E E +E  E E E
|---------------------|---------------------|
|---------------------|---------------------|
|-----9---7-(7)-----5-|-(5)-----7-(7)-------|
|---------------7-----|-----5---------7-----|
|-(0)---0---------0---|-------0---------0-0-|
|---------------------|---------------------|


  +E  E E E +E  E E E   +E  E E E +E  E E E
|-------------------3-|-(3)-3-3-2-(2)-------|
|-----5-------------3-|-(3)-3-3-3-(3)-------|
|---------7-(7)-----0-|-(0)-0-0-2-(2)-------|
|-------7-------7---0-|-(0)-0-0-0-(0)-5-5---|
|-(0)-------------0-2-|-(2)-2-2-0-(0)-3-2-0-|
|-------------------3-|-(3)-3-3-------------|


    +E  E E E E E E E   Q  E E Q  Q    E E E E E E E E   +Q.   E Q  Q  3x
||--------------------|--------------|-----------------|---------------||
||o-------------------|--------3--3--|-----------------|---------3--3-o||
||------9-7-9---7-5-7-|--------0--0--|---9-7-9---7-5-7-|-(7)-----0--0--||
||------7-7-7---5-5-7-|--------------|---7-7-7---5-5-7-|-(7)-----------||
||o-(0)-------------0-|------0-3--2--|-0---------------|-------0-3--2-o||
||--------------------|--------------|-----------------|---------------||


  E E E E +E  E E E   +E  E E E Q  Q    E E E E +E  E E E   E E E E Q  Q
|-------------------|--------------3--|-------------------|------------3--|
|---3-3-3-(3)-3-3-3-|-(3)-3-3-3----3--|---3-3-3-(3)-3-3-3-|-3-3-3-3----3--|
|---2-0-2-(2)-2-0-2-|-(2)-2-2-2-5--0--|---2-0-2-(2)-2-0-2-|-2-2-2-2-5--0--|
|-------------------|-----------5--0--|-------------------|---------5--0--|
|-------------------|-----------3-----|-------------------|---------3-----|
|-------------------|--------------3--|-------------------|------------3--|


  E E E E +E  E E E   +E  E E E Q  Q    E E E E +E  E E E   +E  E E E Q  Q
|-------------------|-----------------|-------------------|-----------3--3--
|---9---9-(9)-9---9-|-(9)-9-----3--2--|---9---9-(9)-9---9-|-(9)-9-----3--3--
|---9---9-(9)-9---9-|-(9)-9-----2--2--|---9---9-(9)-9---9-|-(9)-9-----0--0--
|---9---9-(9)-9---9-|-(9)-9-----0--2--|---9---9-(9)-9---9-|-(9)-9-----0--0--
|-7-7-7-7-(7)-7-7-7-|-(7)-7-7-x-0--0--|-7-7-7-7-(7)-7-7-7-|-(7)-7-7-7-------
|-0-0-0-0-(0)-0-0-0-|-(0)-0-0-x-------|-0-0-0-0-(0)-0-0-0-|-(0)-0-0-0-3--3--


  E E E E +E  E E E   +E  E E E +E  E E E
|-------------------|---------------------|
|-------------------|---------------------|
|---9---7-(7)-----5-|-(5)-----7-(7)-------|
|-------------7-----|-----5---------7-----|
|-0---0---------0---|-------0---------0-0-|
|-------------------|---------------------|


  +E  E E E +E  E E E   +E  E E E +E  E E E
|---------------------|---------------------|
|---------------------|---------------------|
|-----9---7-(7)-----5-|-(5)-----7-(7)-------|
|---------------7-----|-----5---------5-5---|
|-(0)---0---------0---|-------0-------3-2-0-|
|---------------------|---------------------|


  +E  E E E +E  E E E   +E  E E E +E  E E E
|---------------------|---------------------|
|---------------------|---------------------|
|-----9---7-(7)-----5-|-(5)-----7-(7)-------|
|---------------7-----|-----5---------7-----|
|-(0)---0---------0---|-------0---------0-0-|
|---------------------|---------------------|


  +E  E E E +E  E E E   +E  E E E +E  E E E
|-------------------3-|-(3)-3-3-2-(2)-------|
|-----5-------------3-|-(3)-3-3-3-(3)-------|
|---------7-(7)-----0-|-(0)-0-0-2-(2)-------|
|-------7-------7---0-|-(0)-0-0-0-(0)-5-5---|
|-(0)-------------0-2-|-(2)-2-2-0-(0)-3-2-0-|
|-------------------3-|-(3)-3-3-------------|


  W          E E S S S S E E S S E   +H     E E E   +E
|----------|-----------------------|----------5---------|
|----------|---8-7h8p7---7-5-------|----------5-7b8-(7)-|
|----------|---7-7-----9-7-5-------|------------7b8-(7)-|
|-2--------|-----------------7p5-7-|-(7)----------------|
|-0--------|-----------------------|--------------------|
|----------|-----------------------|--------------------|


                            ~         ~~~
  +H     +Q     Q     E S S Q  S S E +Q     S S S S E a E +Q   Q
|-------------------|---------------------|--------------------------|
|-(7)----(7)b8------|---------------------|--------------------------|
|-(7)----(7)b8------|---------------------|--------------------7b9---|
|-------------------|---5h7-7--4h5-5-(5)--|-0h4-5s7-7-5s7-(7)--------|
|---------------x\--|---------------------|--------------------------|
|-------------------|---------------------|--------------------------|


  +E     E Q    S    E    S    E    S    S
|---------------------------------------------|
|--------8------8----8----8----8----8----8----|
|-(7)pb9---7b9--7pb9-7pb9-7pb9-7pb9-7pb9-7pb9-|
|---------------------------------------------|
|---------------------------------------------|
|---------------------------------------------|


                                          ~~     ~~
  +S     S    E    +E     E S S E Q     E Q.   E Q.
|------------------------------------|----------------|
|-(8)----8----8----(8)------------5--|----8----7-7----|
|-(7)pb9-7pb9-7pb9-(7)pb9r7-5-----5--|-/9-9----7-7----|
|-----------------------------7-7----|----------------|
|------------------------------------|----------------|
|------------------------------------|----------------|


    ~~       ~~~
  E Q.    E  Q.      S  S  S  S  S  S  S  S  S  S  S  S  S  S  S  S
|-----------------|-------------------------------------------------|
|-8-8----10-10----|-13-13-12s13-13-12s13-13-12s13-13-13-13-13-13-13-|
|-9-9----11-11----|-14-14-13s14-14-13s14-14-13s14-14-14-14-14-14-14-|
|-----------------|-------------------------------------------------|
|-----------------|-------------------------------------------------|
|-----------------|-------------------------------------------------|


   E  Q.    E     Q.
|-12-12----10----10-------|
|-13-13----13b15-13b15----|
|-------------------------|
|-------------------------|
|-------------------------|
|-------------------------|


   E     E     +E   Q        E  E
|-10-----------------------/10-10---|
|-13b15-12b13r(12)-10\-----/10-10---|
|-----------------------------------|
|-----------------------------------|
|-----------------------------------|
|-----------------------------------|
|
| Gtr II
|  E     E      E   E  +E    E  E E
|-----------------------------------|
|--------3------3---3--(3)---3--3-3-|
|--------2------0---2--(2)---2--0-2-|
|-----------------------------------|
|-----------------------------------|
|-----------------------------------|


   +E   S  S  S  S  E  +E   E  +E.   S    E  Q       E  E.      S  Q
|-(10)-------10----10-(10)-------------|------------17---------17---------|
|-(10)-13p10----10---------13-(13)\----|-15-17b19------17b19------17b19---|
|--------------------------14-(14)\-14-|----------------------------------|
|--------------------------------------|----------------------------------|
|--------------------------------------|----------------------------------|
|--------------------------------------|----------------------------------|
|
|  +E   E     E     E   Q       Q         E  E    E  E +E    E     E    E
|-------------------------------3------|----------------------------------|
|--(3)--3-----3-----3-----------3------|-----3----3--3-(3)---3-----3----3-|
|--(2)--2-----2-----2---5-------0------|-----2----0--2-(2)---2-----0----2-|
|-----------------------5-------0------|----------------------------------|
|-----------------------3--------------|----------------------------------|
|-------------------------------3------|----------------------------------|


   E     Q       +E   S  S  S  S  Q     Q       Q       E     Q       S  S
|-17----17---------------------------|-------------------------------17----|
|-17b19-17b19r==(17)-15-17-15----15--|---------20-----------------------20-|
|-----------------------------16-----|-19b21---19b21---19b21-19b21---------|
|------------------------------------|-------------------------------------|
|------------------------------------|-------------------------------------|
|------------------------------------|-------------------------------------|
|
|  E     E    E   E   Q           Q     E    E  E    E +E     E    E  E
|---------------------------------3--|-------------------------------------|
|--3-----3----3---3---------------3--|-------9-------9-(9)----9-------9----|
|--------2----2---2---5-----------0--|-------9-------9-(9)----9-------9----|
|---------------------5-----------0--|-------9-------9-(9)----9-------9----|
|---------------------3--------------|--7----7--7----7-(7)----7----7--7----|
|---------------------------------3--|--0----0--0----0-(0)----0----0--0----|


          |--3--|
   S   S  S  S  S  S  S  S S  E     Q       E
|------------------------------------------17--|
|-17-------------------------20b22-20b22-------|
|-----20p19p17----19-17------------------------|
|--------------19-------19---------------------|
|----------------------------------------------|
|----------------------------------------------|
|
| +E      E        E     E    Q          Q
|----------------------------------------------|
|-(9)-----9-------------------3----------2-----|
|-(9)-----9-------------------2----------2-----|
|-(9)-----9-------------------0----------2-----|
|-(7)-----7--------7-----x----0----------0-----|
|-(0)-----0--------0-----x---------------------|


   +S   S  S  S     S  S  S  S  Q       Q
|-(17)-20-17-------17-17-------20b22---20b21---|
|------------20b22-------20-17-----------------|
|----------------------------------------------|
|----------------------------------------------|
|----------------------------------------------|
|----------------------------------------------|
|
|   E      E        E     E    +E    E  E    E
|----------------------------------------------|
|----------9--------------9----(9)---9-------9-|
|----------9--------------9----(9)---9-------9-|
|----------9--------------9----(9)---9-------9-|
|---7------7--------7-----7----(7)---7--7----7-|
|---0------0--------0-----0----(0)---0--0----0-|


                              ~~
   S   S  S  S     +S   S  E  Q   Q     W
|-17----------------------------------|-------------------|
|-----20-17---------------------------|-------------------|
|-----------19b21r(19)-17----17-------|-------------------|
|-------------------------19-----19\--|-------------------|
|-------------------------------------|-------------------|
|-------------------------------------|-------------------|
|
| +E      E         E      E  Q   Q     E E E E +E  E E E
|-----------------------------3---3---|-------------------|
|-(9)-----9-------------------3---3---|-------------------|
|-(9)-----9-------------------0---0---|---9---7-(7)-----5-|
|-(9)-----9-------------------0---0---|-------------7-----|
|-(7)-----7---------7------7----------|-0---0---------0---|
|-(0)-----0---------0------0--3---3---|-------------------|


  Gtr II
  +E  E E E +E  E E E   +E  E E E +E  E E E   +E  E E E +E  E E E
|---------------------|---------------------|---------------------|
|---------------------|---------------------|---------------------|
|-(5)-----7-(7)-------|-----9---7-(7)-----5-|-(5)-----7-(7)-------|
|-----5---------7-----|---------------7-----|-----5---------5-5---|
|-------0---------0-0-|-(0)---0---------0---|-------0-------3-2-0-|
|---------------------|---------------------|---------------------|


  E E E E +E  E E E   +E  E E E +E  E E E   +E  E E E +E  E E E
|-------------------|---------------------|---------------------|
|-------------------|---------------------|---------------------|
|---9---7-(7)-----5-|-(5)-----7-(7)-------|-----9---7-(7)-----5-|
|-------------7-----|-----5---------7-----|-------7-------7---5-|
|-----0---------0---|-------0---------0-0-|-(0)-------------0-3-|
|-------------------|---------------------|---------------------|
|
| E E E E +E  E E E   +E  E E E +E  E E E   +E  E E E +E  E E E
|-------------------|---------------------|---------------------|
|-------------------|---------------------|---------------------|
|---9---7-(7)-----5-|-(5)-----7-(7)-------|-----9---7-(7)-----5-|
|-------------7-----|-----5---------7-----|-------7-------7---5-|
|-----0---------0---|-------0---------0-0-|-(0)-------------0-3-|
|-------------------|---------------------|---------------------|


  +E  E E E +E  E E  E       +E       E  E      E  +Q.      E
|-------------------------|----------15-----------------------|
|-------------------15b17-|-(15)pb17----15pb17-15-(15)-----13-|
|-(5)-5-5-7-(7)-----------|-----------------------------------|
|-(5)-5-5-7-(7)-5-5-------|-----------------------------------|
|-(3)-3-3-5-(5)-3-2--0----|-----------------------------------|
|-------------------------|-----------------------------------|
|
| Gtr II
| +E  E E E +E  E E  E        E       E  E      E  +E  E E  E
|-------------------------|-----------------------------------|
|-------------------15b17-|-----------------------------------|
|-(5)-5-5-7-(7)-----------|-----------9---------7--(7)------5-|
|-(5)-5-5-7-(7)-5-5-------|----------------------------7------|
|-(3)-3-3-5-(5)-3-2--0----|--------------0---------------0----|
|-------------------------|-----------------------------------|


   +Q.      E  +Q.      E
|----------------------------|
|-(13)-----15-(15)-----15b17-|
|----------------------------|
|----------------------------|
|----------------------------|
|----------------------------|
|
|  +E  E E  E  +E  E E  E
|----------------------------|
|----------------------------|
|--(5)------7--(7)-----------|
|------5-----------7---------|
|--------0-----------0--0----|
|----------------------------|


   +E       E  E      E  +Q.      E
|----------15-----------------------|
|-(15)pb17----15pb17-15-(15)-----13-|
|-----------------------------------|
|-----------------------------------|
|-----------------------------------|
|-----------------------------------|
|
| Gtr II
|  +E       E  E      E  +E  E E  E
|-----------------------------------|
|-----------------------------------|
|-----------9---------7--(7)------5-|
|--------------7-------------7----5-|
|--(0)-------------------------0--3-|
|-----------------------------------|


   +Q.      E  +Q.      E       +E       E  E      E  +Q.      E
|----------------------------|----------15-----------------------|
|-(13)-----15-(15)-----15b17-|-(15)pb17----15pb17-15-(15)-----13-|
|----------------------------|-----------------------------------|
|----------------------------|-----------------------------------|
|----------------------------|-----------------------------------|
|----------------------------|-----------------------------------|
|
|  +E  E E  E  +E  E E  E        E       E  E      E  +E  E E  E
|----------------------------|-----------------------------------|
|----------------------15b17-|-----------------------------------|
|--(5)-5-5--7--(7)-----------|-----------9---------7--(7)------5-|
|--(5)-5-5--7--(7)-5-5-------|----------------------------7------|
|--(3)-3-3--5--(5)-3-2--0----|--------------0---------------0----|
|----------------------------|-----------------------------------|


   +Q.      E  +Q.      E
|----------------------------|
|-(13)-----15-(15)-----15b17-|
|----------------------------|
|----------------------------|
|----------------------------|
|----------------------------|
|
|  +E  E E  E  +E  E E  E
|----------------------------|
|----------------------------|
|--(5)------7--(7)-----------|
|------5-----------7---------|
|--------0-----------0--0----|
|----------------------------|


   +E       E  E      E  +Q.      E    +E  Q.    Q    Q
|----------15-----------------------|---------------------|
|-(15)pb17----15pb17-15-(15)-----13-|-(13)----------------|
|-----------------------------------|---------------------|
|-----------------------------------|---------------------|
|-----------------------------------|---------------------|
|-----------------------------------|------x\---17\--17\--|
|
|  +E       E  E      E  +E  E E  E
|-----------------------------------|---------------------|
|-----------------------------------|---------------------|
|-----------9---------7--(7)------5-|---------------------|
|--------------7-------------7----5-|---------------------|
|--(0)-------------------------0--3-|---------------------|
|-----------------------------------|---------------------|


           ~~~       ~~~    ~~~~~~
  E E E E +Q.   E   +Q.   a E +Q   Q     E E    E    +E      +Q        E E
|-----------------|--------------------|---5----5----(5)-----(5)\--------8--
|-----------------|--------------------|---8b10-8b10-(8)pb10-(8)pb10\-------
|---2-0-2-(2)---2-|-(2)---5h7-(7)--5\--|------------------------------------
|---2-------------|--------------------|------------------------------------
|---0-------------|--------------------|------------------------------------
|-----------------|--------------------|------------------------------------


  +E   E S  E. S  E.  +Q      E E    E    +E      +Q        E  E
|-(8)----------8------------|---5----5----(5)-----(5)\--------------|
|-----10-8h10----10--(10)\--|---8b10-8b10-(8)pb10-(8)pb10\----20b22-|
|---------------------------|---------------------------------------|
|---------------------------|---------------------------------------|
|---------------------------|---------------------------------------|
|---------------------------|---------------------------------------|


                                 ~~~~~
   +S       S  S  S  S     S  E  H
|----------17-------------17-------------|
|-(20)pb22----20-17-20b22----17-20b22----|
|----------------------------------------|
|----------------------------------------|
|----------------------------------------|
|----------------------------------------|


  H.=H
  |---3----|
  Q  Q     Q     Q      T  T  T  T     +T   T  T     T
|----------------------17------------------------------|
|---20b22-20b22-20b22-----20-17---------------------20-|
|-------------------------------19b21r(19)-17-19b21----|
|------------------------------------------------------|
|------------------------------------------------------|
|------------------------------------------------------|


                 |-----3-----|
   Q      Q      Q     Q     Q
|----------------------------------|
|-20-----20-----20----20----20-----|
|-19b21--19b21--19b21-19b21-19b21r=|
|----------------------------------|
|----------------------------------|
|----------------------------------|


                                  H=H
    Q    S  S  S  S  +Q   H       E E E E H
|-------------------------------|--------------|
|--20---------19-17-(17)--------|--------------|
|-(19)--17----19-17-(17)--------|-2---2--------|
|----------19-------------x\----|-2---2--------|
|-------------------------------|-0---0--------|
|-------------------------------|---3----------|


Paroles:

I'm a rolling thunder, a pouring rain
I'm comin' on like a hurricane
My lightning's flashing across the sky
You're only young but you're gonna die

I won't take no prisoners, won't spare no lives
Nobody's putting up a fight
I got my bell, I'm gonna take you to hell
I'm gonna get you, Satan get you

REFRAIN:
Hell's Bells
Yeah, Hell's Bells
You got me ringing Hell's Bells
My temperature's high, Hell's Bells

I'll give you black sensations up and down your spine
If you're into evil you're a friend of mine
See my white light flashing as I split the night
'Cause if GODS on the left, then I'm stickin' to the right

I won't take no prisoners, won't spare no lives
Nobody's puttin' up a fight
I got my bell, I'm gonna take you to hell
I'm gonna get you, Satan get you

REFRAIN

yeow
Hell's Bells, Satan's comin' to you
Hell's Bells, he's ringing them now
Hell's Bells, the temperature's high
Hell's Bells, across the sky
Hell's Bells, they're takin' you down
Hell's Bells, they're draggin' you around
Hell's Bells, gonna split the night
Hell's Bells, there's no way to fight, yeah

Imprimer la tab Imprimer la tab

Commentez la tablature