Cours de guitare Cours de guitare | Nouveautés | Top 100 | Tous les accords | Blog
# a b c d e f g h i j k l m n o p q r s t u v w x y z demander une tab

You shook me all night long tab


Intro

|------------------------------------------------------------------2~-|
|-8~--10--8-8---8-7-----3-----3-----3--------8~--10--8-8---8-7-----3~-|
|-7~---7--7---7-----7---2-----2--------------7~---7--7---7-----7---2~-|
|---------------------0-0-----0---------0------------------------0-0~-|
|--------------------------3b---3/4---3-------------------------------|
|---------------------------------------------------------------------|

Verse (Repeat)

|-3----3--3--3--3--3--2----3--3--2--3--2-|-3----3--3--3--3--3--2----3--3--2--3--2-|
|-3----3--3--3--3--3--3----3--3--3--3--3-|-3----3--3--3--3--3--3----3--3--3--3--3-|
|-0----0--0--0--0--0--2----0--0--2--0--2-|-0----0--0--0--0--0--2----0--0--2--0--2-|
|-0---(2)(2)-0-(2)-0--0----0--0--0--0--0-|-0---(2)(2)-0-(2)-0--0----0--0--0--0--0-|
|(2)---3--3-(2)-3-(2)-----(2)(2)---(2)---|(2)---3--3-(2)-3-(2)--------------------|
|-3----------3-----3-------3--3-----3----|-3----------3-----3---------------------|

Chorus (Repeat)

|----3------------------------2----------------------|
|----3----------3------3------3----------3-------3---|
|----0--------0------0---0----2--------0---0---0---0-|
|----0---------------------0--0----------------------|
|---(2)-0-2-3------2-------------0-2-3-------2-------|
|-3--3-----------------------------------------------|

Played before the solo and at the end

|----3------------------------2-2-2-2-2-3-3-3-3-3-2-2-2-2-2-2-2-2-2-|
|----3----------3------3------3-3-3-3-3-3-3-3-3-3-3-3-3-3-3-3-3-3-3-|
|----0--------0------0---0----2-2-2-2-2-0-0-0-0-0-2-2-2-2-2-2-2-2-2-|
|----0---------------------0--0-0-0-0-0-0-0-0-0-0-0-0-0-0-0-0-0-0-0-|
|---(2)-0-2-3------2--------------------x-x-x-x-x-------------------|
|-3--3----------------------------------3-3-3-3-3-------------------|

Solo (The notes are close, but I'm not too sure about the timing.)

|-----3----------------------------------------------------------------------8------------------|
|-------3---6~-------------------------------------6-6----8-8----8-p10-----8---8---10-10bp8---8-|
|-5b~----------3b---------------3---3---------3~-/7-----/9------9---------9--------------9------|
|-----------------5~--5--3--------5---5--3--5---------------------------------------------------|
|-------------------5------5-3~-----------------------------------------------------------------|
|-----------------------------------------------------------------------------------------------|


|-15~-15-------------------------------------------------------------|
|--------15-18-----------17-15-----18-----18------------17-15-17-15-|
|--------------17b-15----17-15-17b----17b----17rb-15----17-15-17-15-|
|---------------------17-----------------------------17--------------|
|--------------------------------------------------------------------|
|--------------------------------------------------------------------|


|-----18b-17~--17-15----17----15-----15-------------------------15------15-18-18b-15~~|
|-15-----------------17----17----18b----18bp15-------------17-17---17-17--------------|
|----------------------------------------------17b-15-17b-----------------------------|
|-------------------------------------------------------------------------------------|
|-------------------------------------------------------------------------------------|
|-------------------------------------------------------------------------------------|


Imprimer la tab Imprimer la tab

Un commentaire »

  • georges :

    good tablature
    fidele a l original

Commentez la partition de You shook me all night long