Cours de guitare Cours de guitare | Nouveautés | Top 100 | Tous les accords | Blog
# a b c d e f g h i j k l m n o p q r s t u v w x y z demander une tab

So far away tab


Tablature de la chanson « So far away » de Avenged Sevenfold.

Em                        Em
  Never feared for anything
                             Em
  Never shamed but never free
    G                     D
  A laugh that healed the broken heart 
       Bm          C
  With all that it could

 Em                          Em
  Lived the life so endlessly
                            Em
  Saw beyond what others see
    G                  D
  I tried to heal your broken heart
       Bm         C
  With all that I could

  C
  Will you stay?
  D
  Will you stay away forever?

  Em                        G
  How do i live without the ones i love?
  Am                                Em             D                         
  Time still turns the pages of the book it's burned
  Em                    G
  Place and time always on my mind
    Am                                C       D
  I have so much to say but you're so far away

 Em                               Em
  Plans of what our features hold
                              Em
  Foolish lies of growin' old
     G                  D           Bm          C
  It seems we're so invincible, the truth is so cold

 Em                            Em
  A final song, a last request
                                 Em
  A perfect chapter laid to rest
  G              D             Bm          C
  Now and then I try to find a place in my mind

        C
  Where you can stay
  D
  You can stay awake forever


  Em                        G
  How do I live without the ones i love?
  Am                                Em             D                         
  Time still turns the pages of the book it's burned
  Em                    G
  Place and time always on my mind
    Am                                C       D
  I have so much to say but you're so far away

  E                C
  Sleep tight, I'm not afraid
      Am                      Em
  The ones that we love are here with me
  E          C   
  Lay away a place for me
            D                            C
  'Cause as soon as I'm done, I'll be on my way
     D
  To live eternally


  Solo 1
e|--------------------------------------------------------------------------|
B|--------9--12-12b13r12--8v-----/10--10h12p10v-----------------------------|
G|--/9--------------------------------------------/9-12-12/14-14b16r14-12v\-|
D|--------------------------------------------------------------------------|
A|--------------------------------------------------------------------------|
E|--------------------------------------------------------------------------|

e|--------------------------------------------------------------------------|
B|--------9--12-12b13r12--8v-----/15-15-17-17--19--19-20-17v----15-20b22r20-|
G|--/9----------------------------------------------------------------------|
D|--------------------------------------------------------------------------|
A|--------------------------------------------------------------------------|
E|--------------------------------------------------------------------------|

e|--------------------------------------------------------------------------|
B|-19-15---17b19r17v--------------------------------------------------------|
G|--------------------------------------------------------------------------|
D|--------------------------------------------------------------------------|
A|--------------------------------------------------------------------------|
E|--------------------------------------------------------------------------|


  Em                        G
  How do I live without the ones i love?
  Am                                Em             D                         
  Time still turns the pages of the book it's burned
  Em                    G
  Place and time always on my mind
          Am                                 C          D
  And the light you left remains but it's so hard to stay  
         Am                                C       D    Em
  When I have so much to say and you're so far away

  
Break 
Em - D - Am - G - D 
Em - D - C 
Em - D - Am - G - D
Em - D - C

Solo 2
e|--------------------------------------------------------------------|
B|--/17----19--20--13----12--10--12p10s8------------------------------|
G|------------------------------------------/11v-/16-16\9-9/12v-------|
D|--------------------------------------------------------------------|
A|--------------------------------------------------------------------|
E|--------------------------------------------------------------------|

e|--------------------------------------------------------------------|
B|--/17----19--20--13----12--10--12p10s8------------------------------|
G|------------------------------------------/11v-/16-16\9-9/12v-------|
D|--------------------------------------------------------------------|
A|--------------------------------------------------------------------|
E|--------------------------------------------------------------------|

e|----------------------------|
B|----------------------------|
G|-/12v-11v--/16-16\9/12v-----|
D|----------------------------|
A|----------------------------|
E|----------------------------|

e|-------------------------------------------------------------------------|
B|--/17----19--20--13----12b13r12-10--12p10s8------------------------------|
G|-----------------------------------------------/11v-/16-16\9-9/12v-------|
D|-------------------------------------------------------------------------|
A|-------------------------------------------------------------------------|
E|-------------------------------------------------------------------------|

e|-------------------------------------------------------------------|
B|--/17----19--20--13---15-17-15-13-15-12--12-13-10---12p10s8--------|
G|-------------------------------------------------------------------|
D|-------------------------------------------------------------------|
A|-------------------------------------------------------------------|
E|-------------------------------------------------------------------|

e|-------------------------------------------------------|
B|-------------------------------------------------------|
G|--/11v-/16-16\9-9/12v-12b13r12v--11v--/16-16\9-9/12v---|
D|-------------------------------------------------------|
A|-------------------------------------------------------|
E|-------------------------------------------------------|

e|---------------------------------------------------------|
B|---------------------------------------------------------|
G|--/12v--11v--/16-16\9-9/12v----/12v--11v--/16-16\9-9/12v-|
D|---------------------------------------------------------|
A|---------------------------------------------------------|
E|---------------------------------------------------------|

e|-------------------------------------------------------|
B|-------------------------------------------------------|
G|--/12--11--7/9vvvvvv(9)v-------------------------------|
D|-------------------------------------------------------|
A|-------------------------------------------------------|
E|-------------------------------------------------------|

Paroles solo:
I love you
You were ready
The pain is strong enough to despise
But I'll see you
When He lets me
Your pain is gone, your hands are tied

So far away
And I need you to know

So far away
And I need you to, need you to know


Imprimer la tab Imprimer la tab

Commentez la partition de So far away