Cours de guitare Cours de guitare | Nouveautés | Top 100 | Tous les accords | Blog
# a b c d e f g h i j k l m n o p q r s t u v w x y z demander une tab

Lettre à Elise tab


E|--0---0---0-----------------------|------------------0---0---0-------|
B|----4---4---0-3-1-------------0---|--------0-1---------4---4---0-3-1-|
G|------------------2---2-----2-----|--1---1-------2-------------------|
D|--------------------2-----2-----2-|----2-------2---2-----------------|
A|------------------0-----3---------|----------0-----------------------|
E|------------------------------0---|----------------------------------|


|--------------------------------0-|----0---0-------------------------|
|--------------0-------1-0---------|--4---4---0-3-1-------------0-----|
|--2---2-----2-----1-------2---2---|----------------2---2-----2-----1-|
|----2-----2-----2---2-------2-----|------------------2-----2-----2---|
|--0-----3-----------------0-------|----------------0-----3-----------|
|--------------0-------------------|----------------------------0-----|


|------------------0---0---0-------|--------------------------------0-|
|------0-1-----------4---4---0-3-1-|--------------0-------1-0---------|
|----1---------2-------------------|--2---2-----2-----1-------2---2---|
|--2---------2---2-----------------|----2-----2-----2---2-------2-----|
|----------0-----------------------|--0-----3-----------------0-----3-|
|----------------------------------|--------------0-------------------|


|--------1-0---------0-------------|--------0---0---0---12---0---0---0-|
|----1-------3---0-----3-1-------3-|--1-0------------------4---4---4---|
|------0-------0-------------2-----|-----------------------------------|
|--2---------------3-------2---2---|------2---2---2---9----------------|
|------------------------0---------|-----------------------------------|
|------------3---------------------|----0------------------------------|


|----0---0---0---------------------|--------------------0---0---0-----|
|--4---4---4---0-3-1-------------0-|----------0-1---------4---4---0-3-|
|--------------------2---2-----2---|----1---1-------2-----------------|
|----------------------2-----2-----|--2---2-------2---2---------------|
|--------------------0-----3-------|------------0---------------------|
|--------------------------------0-|----------------------------------|


|----------------------------------|--------0-------1-0---------0-----|
|--1-------------0-------1-0-------|--0-1-3-----1-------3---0-----3-1-|
|----2---2-----2-----1-------2---2-|--------------0-------0-----------|
|------2-----2-----2---0-------2---|----------2---------------3-------|
|----0-----3-----------------0-----|--------3-----------------------0-|
|----------------0-----------------|--------------------3-------------|


|----------------0---0-----12---0---|--0---0---0---0---0---------------|
|--------3-1-0----------------4---4-|----4---4---4---4---0-3-1---------|
|----2------------------------------|--------------------------2---2---|
|--2---2-------2---2---2------------|----------------------------2-----|
|-----------------------------------|--------------------------0-----3-|
|------------0-----------0----------|----------------------------------|


|--------------------------0---0---|--0-------------------------------|
|------0---------0-1---------4---4-|----0-3-1-------------0-------1-0-|
|----2-----1---1-------2-----------|----------2---2-----2-----1-------|
|--2-----2---2-------2---2---------|------------2-----2-----2---0-----|
|------------------0---------------|----------0-----3-----------------|
|------0---------------------------|----------------------0-----------|


|----0---0---0---0---0-------------|----------------------0---0---0---|
|--4---4---4---4---4---0-3-1-------|--0---------0-1---------4---4---0-|
|----------------------------2---2-|------1---1-------2---------------|
|------------------------------2---|----2---2-------2---2-------------|
|----------------------------0-----|--------------0-------------------|
|----------------------------------|--0-------------------------------|


|-0-----------------------------------|------0---0---0-------------------|
|---0-3-1-------------0---------0-1---|--------4---4---0-3-1-------0-----|
|---------2---2-----2-----1---1-------|--2-------------------2---2-----1-|
|-----------2-----2-----2---2-------2-|----2-------------------2-----2---|
|---------0-----3-----------------0---|----------------------0-----------|
|---------------------0---------------|----------------------------0-----|


|-------------|
|----1-0------|
|--------2~~--|
|--0----------|
|--------0~~--|
|-------------|


Imprimer la tab Imprimer la tab

3 commentaires »

  • gyome :

    Mal écrit dommage

  • admin (author) :

    C’est corrigé !

  • anna :

    ouai c est bien

Commentez la partition de Lettre à Elise