Cours de guitare Nouveautés | Top 100 | Tous les accords | Les contributeurs | le Blog
# a b c d e f g h i j k l m n o p q r s t u v w x y z +ajouter

Waiting on an angel

Imprimer la tab Imprimer la tab

Vidéo guitare et chant, tablature, accords, paroles de la chanson “Waiting on an angel” de Ben Harper.

Tablature : accords, paroles

e|-------------------------------------------------------------------------|
B|-----1-1-----1-1----1-1-----0-0h1-------1-1-----1-1-----1-1--------------|
G|-----0-0-----0-0----0-0-----0-0---------0-0-----0-0-----0-0--------------|
D|-------------------------------------------------------------------------|
A|--3-------2-------0-------------------3-------2-------0------------------|
E|--------------------------3-----------------------------------3----------|

e|-----------------------------------¦-------------------------------------|
B|-----1-1-----1-1----1-1-----0-0h1--¦----1-1-----1-1----1-1-----0-0-------|
G|-----0-0-----0-0----0-0-----0-0----¦----0-0-----0-0----0-0-----0-0-------|
D|-----------------------------------¦-------------------------------------|
A|--3-------2-------0----------------¦--3-------2-------0------------------|
E|--------------------------3--------¦------------------------3------------|
    waiting   on an  angel
   one to   carry me home               hope you come and see me soon

e|-------------------------------------------------------------------------|
B|-----1-1----0-0----1-1----1-1----1-1----0-0------------------------------|
G|-----2-2----0-0----2-2----0-0----2-2----0-0------------------------------|
D|-------------------------------------------------------------------------|
A|-----------------0-------------------------------------------------------|
E|--1-------3-------------0------1------3----------------------------------|
casue i
    dont wanna go alone        i dont wanna go alone

 (repeter le couplet avec les paroles suivantes):

 now angel wont you come by me
 angel hear my plea
 Take my hand, lift me up

e|-------------------------------------------------------------------------|
B|-----1-1----0-0----1-1----1-1----1-1----0-0------1-1----1-1--------------|
G|-----2-2----0-0----2-2----0-0----2-2----0-0------0-0----0-0--------------|
D|-------------------------------------------------------------------------|
A|-----------------0-----------------------------3-------------------------|
E|--1-------3-------------0------1------3---------------0------------------|
so that
    i can   fly with the so that i can  fly with the

e|-------------------------------------------------------------------------|
B|-----1-1----0-0----1-1----1-1----1-1----0-0------1-1----1-1--------------|
G|-----2-2----0-0----2-2----0-0----2-2----0-0------0-0----0-0--------------|
D|-------------------------------------------------------------------------|
A|-----------------0-----------------------------3-------------------------|
E|--1-------3-------------0------1------3---------------0------------------|
and im
    waiting on an angle    and i know it wont be long
to find myself a  resting place in my angles arms

e|-------------------------------------------------------------------------|
B|-----1-1----0-0----------------------------------------------------------|
G|-----2-2----0-0----------------------------------------------------------|
D|-------------------------------------------------------------------------|
A|-------------------------------------------------------------------------|
E|--1-------3--------------------------------------------------------------|
 in my angels arms

 So speak kind to a stranger
 Cause you never know
 It just might be an angel come
 Nocking at your door
 Nocking at your door

Refrain (mêmes paroles)

Terminer sur 1er couplet


Contributeur :
Avatar of Romuald

2 commentaires »

  • dadotiste :

    Si je peux me permettre, il y a une faute dans ta tab au niveau du 3eme accord a chaque fois :

    c’est PAS :
    e|———————————|
    B|—–1-1—–1-1—-1-1—–0-0h1|
    G|—–0-0—–0-0—-0-0—–0-0–|
    D|———————————|
    A|–3——-2——-0————–|
    E|————————–3——|

    C’EST :

    e|———————————|
    B|—–1-1—–1-1—-1-1—–0-0h1|
    G|—–0-0—–0-0—-2-2—–0-0–|
    D|———————————|
    A|–3——-2——-0————–|
    E|————————–3——|

    Sinon merci, grace a toi j’ai enfin pu avoir la suite ^^

  • Loïc :

    Ne pas oublier de baisser sa guitare d’un demi ton ; )

Commentez la tablature