Cours de guitare Cours de guitare | Nouveautés | Top 100 | Tous les accords | Blog
# a b c d e f g h i j k l m n o p q r s t u v w x y z demander une tab

Boa Sorte tab


Accords guitare de la chanson « Boa sorte (Good luck) » de Ben Harper et Vanessa Da Mata.

E|-------4-------------0-------------2-------------2--------------0-------|
B|---------5-------------0-------------4-------------2--------------2-----|
G|-----6-----6-------1-----1-------4-----4-------3-----3--------2-----2---|
D|---6---------6-------------2---3----------4-------------4---2---------2-|
A|-----------------2--------------------------4---------------------------|
E|------------------------------------------------------------------------|

C#m
É só isso
                E
Não tem mais jeito
    B         F#
Acabou, boa sorte

             C#m
Não tenho o que dizer
          E
São só palavras
            B
E o que eu sinto
       F#
Não mudará

    C#m
Tudo o que quer me dar
    E
É demais
    B
É pesado
   F#
Não há paz

    C#m
Tudo o que quer de mim
   E
Irreais
      B
Expectativas
    F#
Desleais

     C#m
That’s it
         B
There's no way
    F#
It´s over, Good luck

  C#m
I have nothing left to say
       B
It’s only words
       F#
And what I feel
      F#
Won’t change


   C#m
Tudo o que quer me dar / Everything you want to give me
      E
É demais / It´s too much
      B
É pesado/ It’s heavy
       F#
Não há paz / There's no peace

    C#m
Tudo o que quer de mim / All you want from me
    E
Irreais / Is’nt real
     B
Expectativas / Expectations
    F#
Desleais

E|------------------------------------------------------|
B|-b12-b12-b12r11-9-b9--7h9-b9-5--5h7r5-----------------|
G|--------------------------------------6-6/4--8-9-8--6-|
D-------------------------------------------------------|
A-------------------------------------------------------|
E-------------------------------------------------------|

E|------------------------------------------------------|
B|------------------------------------------------------|
G|-6-8-9-9/11--8--8b---6---8b-4-6-----------------------|
D|------------------------------------------------------|
A|------------------------------------------------------|
E|------------------------------------------------------|

E|------------------------------------------------------|
B|-b12r11-b9-b12r11--b9-5/9-5-7-5-2--4-2h4--5-0h2-7h9b~-|
G|------------------------------------------------------|
D-------------------------------------------------------|
A-------------------------------------------------------|
E-------------------------------------------------------|

E|------------------------------------------------------|
B|-5/4--b4-0h2-4-4/5-4b5--7-8h9b-8h9b~~~~---------------|
G|------------------------------------------------------|
D|------------------------------------------------------|
A|------------------------------------------------------|
E|------------------------------------------------------|

  C#m
Mesmo, se segure
     A
Quero que se cure
     F#
Dessa pessoa
    F#
Que o aconselha

  C#m
Há um desencontro
      A
Veja por esse ponto
       F#
Há tantas pessoas especiais

     C#m                    A
Now even if you hold yourself
            F#
I want you to get cured
             F#
From this person

C#m           A
Who poisoned you
          F#
There is a disconnection

           C#m
See through this point of view
      A                       F#
There are so many special people in the world

    C#m                      A                F#
so many special people in the world, in the world!


All you want  (x2)

             C#m
Tudo o que quer me dar / Everything you want to give me
    E
É demais / It's too much
    B
É pesado / It's heavy
      F#
Não há paz / There's no peace


              C#m
Tudo o que quer de mim / All you want from me
     E
Irreais/ Isn't real
       B
Expectativas / Expectations
    F#
Desleais

   C#m                B             F#
Now were Falling/falling, falling/falling into the night (x4)

Um bom encontro é de dois (x2)


Imprimer la tab Imprimer la tab

Commentez la partition de Boa Sorte