Cours de guitare Cours de guitare | Nouveautés | Top 100 | Tous les accords | Blog
# a b c d e f g h i j k l m n o p q r s t u v w x y z demander une tab

Brooklyn baby tab


Tablature guitare de la chanson « Brooklyn baby » de Lana Del Rey.

Intro
e|--------------------------------|
B|-5-5-5-5-5-5-5---0-0-0-0-0-0-0--|
G|-5-5-5-5-5-5-5---0-0-0-0-0-0-0--|
D|-5-5-5-5-5-5-5---2-2-2-2-2-2-2--|
A|--------------------------------|
E|--------------------------------| 2x

e|-------7-5-------------2-0------|
B|-5-5-5-5-5-8-5---0-0-0-0-0-3-0--|
G|-5-5-5-5-5-5-5---0-0-0-0-0-0-0--|
D|-5-5-5-----------2-2-2----------|
A|--------------------------------|
E|--------------------------------| 2x

G					Em
   They say I'm too young to love you,
				C
I don't know what I need,

They think I don't understand
    G			F		G
The freedom land of the 70's
				  Em
I think I'm too cool to know ya,
					C
You say I'm like the ice I freeze
				G
I'm trying out novels like Beat poetry
     F	   Em
On ampetamines


PRE-REFRAIN:
    C	 Em
I say, 
   F
I say


REFRAIN:
	C		G
Well my boyfriends in a band,
	    F			 C
He plays guitar while I sing Lou Reed,
	  F		C
I've got feathers in my hair,
	F	        Em
I get down to Beat poetry,
       C		G
And my jazz collections rad
      F			C
I can play most anything,
	F	    C
I'm a Brooklyn baby,
	F	    Em
I'm a Brooklyn baby


e|--------------------------------|
B|-5-5-5-5-5-5-5---0-0-0-0-0-0-0--|
G|-5-5-5-5-5-5-5---0-0-0-0-0-0-0--|
D|-5-5-5-5-5-5-5---2-2-2-2-2-2-2--|
A|--------------------------------|
E|--------------------------------|

They say I'm too young to love you,
They say I'm too dumb to see,
They judge me like a picture book by the colors
Like they forgot to read,
I think we're like fire and water,
I think we're like the wind and sea,
You're burning up, I'm cooling down
You're up, I'm down
You're blind, I see

PRE-REFRAIN:
But I'm free, I'm free

REFRAIN:
Well my boyfriends in a band,
He plays guitar while I sing Lou Reed,
I've got feathers in my hair,
I get down to Beat poetry,
And my jazz collections rad
I can play most anything,
I'm a Brooklyn baby, I'm a Brooklyn baby

PONT:
I'm darkened by my generation,
I'm talkin bout that newer nation,
And if you don't like it
You can beat it, beat it baby
You never liked the way I said it,
If you don't get it, then forget it
Cause I don't have to fucking explain it

REFRAIN:
And my boyfriends in a band,
He plays guitar while I sing Lou Reed,
I've got feathers in my hair,
I get high on hydroponic weed,
And my jazz collections rad,
I get down to Beat poetry,
I'm a Brooklyn baby, I'm a Brooklyn baby

Yeah, my boyfriends pretty cool,
But he's not as cool as me,
Cause I'm a Brooklyn baby,
I'm a Brooklyn baby


Imprimer la tab Imprimer la tab

Commentez la partition de Brooklyn baby