Cours de guitare Cours de guitare | Nouveautés | Top 100 | Tous les accords | Blog
# a b c d e f g h i j k l m n o p q r s t u v w x y z demander une tab

Brothers in arms tab


Tablature guitare de la chanson « Brothers in arms » de Dire Straits.

INTRO:
G#m / E / G#m / E  / C#m

 e--------------------------------------------------|
 B----------------------------------------4---------|
 G----------------------3h4/s6-4h3---------4--6-----|
 D---4/6-6-8h6~-6h8-6---------------6-4-6-----------|
 A---4/6--------------------------------------------|
 E--------------------------------------------------|

 e-----------------------------------------------------------|
 B-2/4--------------------------------------------4----------|
 G-----6-4-3---6-4-3----------4-3--4-3----------4---6---6/8~-|
 D-----------6-------6----4-6----------6---6-6---------------|
 A---------------------------------------6-------------------|
 E-----------------------------------------------------------|

      G#m          E     F#
These mist covered mountains
                 B   Bsus4  B
Are home now for me
       D#m         G#m     D#m
But my home is the low lands
                E       F#sus4  F#
And always will be
                G#m     D#m
Someday you'll return to
                     E      C#m   F#sus4
Your valley and your farms
           F#        B
And you'll no longer burn
      E         F#sus4   F#
To brothers in arms

Solo: G#m / E / C#m

G#m                     E       F#
Through these fields of destruction
             B   Bsus4 B
Baptisms of fire
      D#m             G#m      D#m
I've watched all your suffering
        .             E       F#sus4   F#
As the battles raged higher
                    G#m        D#m
And though they did hurt me so bad
                  E     C#m     F#sus4
In the fear and alarm
    F#        B
You did not desert me
      E        F#sus4   F#
My brothers in arms

Solo: G#m / E / C#m

Ref:

G#m        F#             G#m     B    F#
There's so many different worlds
   B               E     F#
So many different suns
    F#               G#m      F#
And we have just one world
       B                 E      E
But we live in different ones

Solo: G#m / E / C#m / E / G#m / E 
/ C#m / C#m -E-F#/ G#m

        G#m           E      F#
Now the sun's gone to hell
                       B   Bsus4   B
And the moon's riding high
        D#m         G#m    D#m
Let me bid your farewell
                E       F#sus4   F#
Everyman has to die
                        G#m      D#m
But its written in the starlight
                       E    C#m   F#sus4
ANd every line on your palm
       F#           B
We're fools to make war
       E           F#
On our brothers in arms


Imprimer la tab Imprimer la tab

Commentez la partition de Brothers in arms