Cours de guitare Cours de guitare | Nouveautés | Top 100 | Tous les accords | Blog
# a b c d e f g h i j k l m n o p q r s t u v w x y z demander une tab

California king bed tab


Tablature guitare de la chanson « California king bed » de Rihanna.

INTRO:
E|--------------|---------------|------------0-------|
B|-----3------3-|-----3-----3---|-----3---------3----|
G|---0------0---|---0-----0---0-|---0------0------0--|
D|--------------|---------------|--------------------|
A|-2------3-----|-2-----3-------|-2------3-----------|
E|--------------|---------------|--------------------|

E|------------0-----|
B|-----3--------3---|
G|---0------2-----2-|
D|------------------|
A|------------------|
E|-3------2---------|

Chest to chest, nose to nose, palm to palm
we were always just that close
|--------^-|---------^-|---------^-|-------^--|
|-3---3--^-|--3---3--^-|--3---3--^-|-3---3-^--|
|-0---0--^-|--0---0--^-|--0---0--^-|-0---0-^--|
|--------^-|---------^-|---------^-|-------^--|
|-2---3--^-|--2---3--^-|--2---3--^-|-------^--|
|--------^-|---------^-|---------^-|-3---2-^--|

Wrist to wrist, toe to toe
lips that felt just like the inside of a rose
|--------^-|---------^-|---------^-|--------^-|
|-3---3--^-|--3---3--^-|--3---3--^-|-3---3--^-|
|-0---0--^-|--0---0--^-|--0---0--^-|-0---0--^-|
|--------^-|---------^-|---------^-|--------^-|
|-2---3--^-|--2---3--^-|--2---3--^-|--------^-|
|--------^-|---------^-|---------^-|-3---2--^-|

So how come when I reach out my fingers
|------------0-------------------0---------|
|-----3--------3---------3---------3-------|
|---0------0-----0-----0-------0-----0-----|
|------------------------------------------|
|--------------------2-------3-------------|
|-0------3---------------------------------|

It feels like more than distance between us
|------------0-------------------0---------|
|-----3--------3---------3---------3-------|
|---0------0-----0-----0-------0-----0-----|
|------------------------------------------|
|--------------------2-------0-------------|
|-0------3---------------------------------|

REFRAIN:
        G          D
In this California king bed
     Em           C
Were 10000 miles apart
          G           D              Em  
I've been California wishing on the stars
                C
For your heart on me
                G
My California king

Eye to eye, cheek to cheek, side by side
you were sleeping next to me
|--------^-|---------^-|---------^-|--------^-|
|-3---3--^-|--3---3--^-|--3---3--^-|-3---3--^-|
|-0---0--^-|--0---0--^-|--0---0--^-|-0---0--^-|
|--------^-|---------^-|---------^-|--------^-|
|-2---3--^-|--2---3--^-|--2---3--^-|--------^-|
|--------^-|---------^-|---------^-|-3---2--^-|

Arm in arm, dusk to dawn, with the curtains drawn
and a little last night on these sheets
|--------^-|---------^-|---------^-|--------^-|
|-3---3--^-|--3---3--^-|--3---3--^-|-3---3--^-|
|-0---0--^-|--0---0--^-|--0---0--^-|-0---0--^-|
|--------^-|---------^-|---------^-|--------^-|
|-2---3--^-|--2---3--^-|--2---3--^-|--------^-|
|--------^-|---------^-|---------^-|-3---2--^-|


So how come when I reach out my fingers
|------------0-------------------0---------|
|-----3--------3---------3---------3-------|
|---0------0-----0-----0-------0-----0-----|
|------------------------------------------|
|--------------------2-------3-------------|
|-0------3---------------------------------|

It feels like more than distance between us
|------------0-------------------0---------|
|-----3--------3---------3---------3-------|
|---0------0-----0-----0-------0-----0-----|
|------------------------------------------|
|--------------------2-------0-------------|
|-0------3---------------------------------|

REFRAIN:
        G          D
In this California king bed
     Em           C
Were 10000 miles apart
          G           D              Em  
I've been California wishing on the stars
                C
For your heart on me
                G
My California king

E|-3>7---3--------7--5--3--5--7--5--3--2--3----2h3p2------------|
B|----------3--0------------------------------------3-0---------|
G|------------------------------------------------------2-0-----|
D|----------------------------------------------------------2---|
A|--------------------------------------------------------------|
E|--------------------------------------------------------------|

E|--7--3--------7--5--3--2--3-------5--3----7--5---|
B|----------3--0-------------------3---------------|
G|-------------------------------------------------|
D|-------------------------------------------------|
A|-------------------------------------------------|
E|-------------------------------------------------|
G                                   D
Just when I felt like hiving you on us
                                             Em
You turned around and gave me one last touch
                                C  
That made everything feel better
                                G
And even then my eyes got wetter
                                         D
So confused when I asked you if you love me
                            Em
But I don't wanna seen so weak
                C               
Maybe I've been California dreaming

REFRAIN:
        G          D
In this California king bed
     Em           C
Were 10000 miles apart
 G           D              Em  
California wishing on the stars
                C
For your heart on me
               G         D         Em           C
My California king
                G         D         Em           C
My California King

        G          D
In this California king bed
     Em           C
Were 10000 miles apart
          G           D              Em  
I've been California wishing on the stars
                  C
For your heart on me
                G
My California king


Imprimer la tab Imprimer la tab

Commentez la partition de California king bed