Cours de guitare Cours de guitare | Nouveautés | Top 100 | Tous les accords | Blog
# a b c d e f g h i j k l m n o p q r s t u v w x y z demander une tab

C'est toi tab


Accords guitare de la chanson « C’est toi » de Volo.

Intro :

     Em               C                 G                     D 
e ||-7-------7------|-----------------|---------------------|----------------|
B ||----8---------8-|-8--------8------|-12---------12-------|-7--8--7-5------|
G ||-------9--------|----9----------9-|-----12--------12----|--------------7-|
D ||----------------|-------10--------|---------------------|----------------|
A ||-7--------------|-----------------|-10------10-------10-|-5--------------|
E ||----------------|-8---------------|---------------------|----------------|

Premier couplet :

    Em               C                 G                      D 
e |-7-------7------|-----------------|----------------------|----------------|
B |----8---------8-|-8--------8------|-12---------12--------|-7--8--7-5------|
G |-------9--------|----9----------9-|-----12-----------12--|--------------7-|
D |----------------|-------10--------|----------------------|----------------|
A |-7--------------|-----------------|-10------10---------10|-5--------------|
E |----------------|-8---------------|----------------------|----------------|

     Em                        CM7 
e ||------------|------------|------------|------------|
B ||----8-----8-|----8-----8-|----8-----8-|----8-----8-|
G ||----9-----9-|----9-----9-|----9-----9-|----9-----9-|
D ||-------9----|-------9----|-------9----|-------9----|
A ||-7----------|-7----------|------------|------------|
E ||------------|------------|-8----------|-8----------|

    G                         D 
e |------------|------------|----------------|----------------||
B |----3-----3-|----3-----3-|-----10------10-|-----10------10-||
G |----4-----4-|----4-----4-|-----11------11-|-----11------11-|| (x2)
D |------------|-4----------|----------------|-12-------------||
A |-------5----|-------5----|---------12-----|---------12-----||
E |-3----------|------------|-10-------------|----------------||

    Em                        C 
e |------------|------------|-------------|--------------|
B |----8-----8-|----8-----8-|----8------8-|-----8------8-|
G |----9-----9-|----9-----9-|----9------9-|-----9------9-|
D |-------9----|-------9----|-------------|-10-----------|
A |-7----------|-7----------|-------10----|--------10----|
E |------------|------------|-8-----------|--------------|

    D                                 D 
e |----------------|----------------|----------------|----------------|
B |-----10------10-|-----10------10-|-----10------10-|-----10------10-|
G |-----11------11-|-----11------11-|-----11------11-|-----11------11-|
D |----------------|-12-------------|----------------|-12-------------|
A |---------12-----|---------12-----|---------12-----|---------12-----|
E |-10-------------|----------------|-10-------------|----------------|

Refrain :

    G                         G 
e |------------|------------|------------|------------|
B |----3-----3-|----3-----3-|----3-----3-|----3-----3-|
G |----4-----4-|----4-----4-|----4-----4-|----4-----4-|
D |------------|-5----------|------------|-5----------|
A |-------5----|-------5----|-------5----|-------5----|
E |-3----------|------------|-3----------|------------|

    D                                 D 
e |----------------|----------------|----------------|----------------|
B |-----10------10-|-----10------10-|-----10------10-|-----10------10-|
G |-----11------11-|-----11------11-|-----11------11-|-----11------11-|
D |----------------|-12-------------|----------------|-12-------------|
A |---------12-----|---------12-----|---------12-----|---------12-----|
E |-10-------------|----------------|-10-------------|----------------|

    Em                        Em 
e |------------|------------|------------|------------|
B |----8-----8-|----8-----8-|----8-----8-|----8-----8-|
G |----9-----9-|----9-----9-|----9-----9-|----9-----9-|
D |-------9----|-------9----|-------9----|-------9----|
A |-7----------|-7----------|-7----------|-7----------|
E |------------|------------|------------|------------|

    C                            C 
e |-------------|--------------|-------------|--------------|
B |----8------8-|-----8------8-|----8------8-|-----8------8-|
G |----9------9-|-----9------9-|----9------9-|-----9------9-|
D |-------------|-10-----------|-------------|-10-----------|
A |-------10----|--------10----|-------10----|--------10----|
E |-8-----------|--------------|-8-----------|--------------|

Deuxième couplet :

     Em                        CM7 
e ||------------|------------|------------|------------|
B ||----8-----8-|----8-----8-|----8-----8-|----8-----8-|
G ||----9-----9-|----9-----9-|----9-----9-|----9-----9-|
D ||-------9----|-------9----|-------9----|-------9----|
A ||-7----------|-7----------|------------|------------|
E ||------------|------------|-8----------|-8----------|

    G                         D 
e |------------|------------|----------------|----------------||
B |----3-----3-|----3-----3-|-----10------10-|-----10------10-||
G |----4-----4-|----4-----4-|-----11------11-|-----11------11-|| (x3)
D |------------|-4----------|----------------|-12-------------||
A |-------5----|-------5----|---------12-----|---------12-----||
E |-3----------|------------|-10-------------|----------------||

    Em                        C 
e |------------|------------|-------------|--------------|
B |----8-----8-|----8-----8-|----8------8-|-----8------8-|
G |----9-----9-|----9-----9-|----9------9-|-----9------9-|
D |-------9----|-------9----|-------------|-10-----------|
A |-7----------|-7----------|-------10----|--------10----|
E |------------|------------|-8-----------|--------------|

    D                                 D 
e |----------------|----------------|----------------|----------------|
B |-----10------10-|-----10------10-|-----10------10-|-----10------10-|
G |-----11------11-|-----11------11-|-----11------11-|-----11------11-|
D |----------------|-12-------------|----------------|-12-------------|
A |---------12-----|---------12-----|---------12-----|---------12-----|
E |-10-------------|----------------|-10-------------|----------------|

Refrain :

    G                                G 
e |------3-3-3---|---3-3-3---3-3-x-|------3-3-3---|---3-3-3---3-3-x-|
B |------3-3-3---|---3-3-3---3-3-x-|------3-3-3---|---3-3-3---3-3-x-|
G |------4-4-4---|---4-4-4---4-4-x-|------4-4-4---|---4-4-4---4-4-x-|
D |------5-5-5---|---5-5-5---5-5-x-|------5-5-5---|---5-5-5---5-5-x-|
A |-5----5-5-5-5-|---5-5-5-5-5-5-x-|-5----5-5-5-5-|---5-5-5-5-5-5-x-|
E |-3----3-3-3-3-|---3-3-3-3-3-3-x-|-3----3-3-3-3-|---3-3-3-3-3-3-x-|

    D                                           D 
e |-------10-10-10----|---10-10-10----10-10-x-|-------10-10-10----|---10-10-10----10-10-x-|
B |-------10-10-10----|---10-10-10----10-10-x-|-------10-10-10----|---10-10-10----10-10-x-|
G |-------11-11-11----|---11-11-11----11-11-x-|-------11-11-11----|---11-11-11----11-11-x-|
D |-------12-12-12----|---12-12-12----12-12-x-|-------12-12-12----|---12-12-12----12-12-x-|
A |-12----12-12-12-12-|---12-12-12-12-12-12-x-|-12----12-12-12-12-|---12-12-12-12-12-12-x-|
E |-10----10-10-10-10-|---10-10-10-10-10-10-x-|-10----10-10-10-10-|---10-10-10-10-10-10-x-|

    Em                               Em 
e |------7-7-7---|---7-7-7---7-7-x-|------7-7-7---|---7-7-7---7-7-x-|
B |------8-8-8---|---8-8-8---8-8-x-|------8-8-8---|---8-8-8---8-8-x-|
G |------9-9-9---|---9-9-9---9-9-x-|------9-9-9---|---9-9-9---9-9-x-|
D |------9-9-9---|---9-9-9---9-9-x-|------9-9-9---|---9-9-9---9-9-x-|
A |-7----7-7-7-7-|---7-7-7-7-7-7-x-|-7----7-7-7-7-|---7-7-7-7-7-7-x-|
E |-7----7-7-7-7-|---7-7-7-7-7-7-x-|-7----7-7-7-7-|---7-7-7-7-7-7-x-|

    C                                           C 
e |-------8--8--8-----|---8--8--8-----8--8--x-|-------8--8--8-----|---8--8--8-----8--8--x-|
B |-------8--8--8-----|---8--8--8-----8--8--x-|-------8--8--8-----|---8--8--8-----8--8--x-|
G |-------9--9--9-----|---9--9--9-----9--9--x-|-------9--9--9-----|---9--9--9-----9--9--x-|
D |-------10-10-10----|---10-10-10----10-10-x-|-------10-10-10----|---10-10-10----10-10-x-|
A |-10----10-10-10-10-|---10-10-10-10-10-10-x-|-10----10-10-10-10-|---10-10-10-10-10-10-x-|
E |-8-----8--8--8--8--|---8--8--8--8--8--8--x-|-8-----8--8--8--8--|---8--8--8--8--8--8--x-|

Troisème couplet :

     Em                               C 
e ||------7-7-7---|---7-7-7---7-7-x-|-------8--8--8-----|---8--8--8-----8--8--x-|
B ||------8-8-8---|---8-8-8---8-8-x-|-------8--8--8-----|---8--8--8-----8--8--x-|
G ||------9-9-9---|---9-9-9---9-9-x-|-------9--9--9-----|---9--9--9-----9--9--x-|
D ||------9-9-9---|---9-9-9---9-9-x-|-------10-10-10----|---10-10-10----10-10-x-|
A ||-7----7-7-7-7-|---7-7-7-7-7-7-x-|-10----10-10-10-10-|---10-10-10-10-10-10-x-|
E ||-7----7-7-7-7-|---7-7-7-7-7-7-x-|-8-----8--8--8--8--|---8--8--8--8--8--8--x-|

    G                                D 
e |------3-3-3---|---3-3-3---3-3-x-|-------10-10-10----|---10-10-10----10-10-x-||
B |------3-3-3---|---3-3-3---3-3-x-|-------10-10-10----|---10-10-10----10-10-x-||
G |------4-4-4---|---4-4-4---4-4-x-|-------11-11-11----|---11-11-11----11-11-x-|| (x3)
D |------5-5-5---|---5-5-5---5-5-x-|-------12-12-12----|---12-12-12----12-12-x-||
A |-5----5-5-5-5-|---5-5-5-5-5-5-x-|-12----12-12-12-12-|---12-12-12-12-12-12-x-||
E |-3----3-3-3-3-|---3-3-3-3-3-3-x-|-10----10-10-10-10-|---10-10-10-10-10-10-x-||

    Em                               C 
e |------7-7-7---|---7-7-7---7-7-x-|-------8--8--8-----|---8--8--8-----8--8--x-|
B |------8-8-8---|---8-8-8---8-8-x-|-------8--8--8-----|---8--8--8-----8--8--x-|
G |------9-9-9---|---9-9-9---9-9-x-|-------9--9--9-----|---9--9--9-----9--9--x-|
D |------9-9-9---|---9-9-9---9-9-x-|-------10-10-10----|---10-10-10----10-10-x-|
A |-7----7-7-7-7-|---7-7-7-7-7-7-x-|-10----10-10-10-10-|---10-10-10-10-10-10-x-|
E |-7----7-7-7-7-|---7-7-7-7-7-7-x-|-8-----8--8--8--8--|---8--8--8--8--8--8--x-|

    D                                           D 
e |-------10-10-10----|---10-10-10----10-10-x-|-------10-10-10----|---10-10-10----10-10-x-|
B |-------10-10-10----|---10-10-10----10-10-x-|-------10-10-10----|---10-10-10----10-10-x-|
G |-------11-11-11----|---11-11-11----11-11-x-|-------11-11-11----|---11-11-11----11-11-x-|
D |-------12-12-12----|---12-12-12----12-12-x-|-------12-12-12----|---12-12-12----12-12-x-|
A |-12----12-12-12-12-|---12-12-12-12-12-12-x-|-12----12-12-12-12-|---12-12-12-12-12-12-x-|
E |-10----10-10-10-10-|---10-10-10-10-10-10-x-|-10----10-10-10-10-|---10-10-10-10-10-10-x-|

Refrain et fin :

     G                                G 
e ||------3-3-3---|---3-3-3---3-3-x-|------3-3-3---|---3-3-3---3-3-x-|
B ||------3-3-3---|---3-3-3---3-3-x-|------3-3-3---|---3-3-3---3-3-x-|
G ||------4-4-4---|---4-4-4---4-4-x-|------4-4-4---|---4-4-4---4-4-x-|
D ||------5-5-5---|---5-5-5---5-5-x-|------5-5-5---|---5-5-5---5-5-x-|
A ||-5----5-5-5-5-|---5-5-5-5-5-5-x-|-5----5-5-5-5-|---5-5-5-5-5-5-x-|
E ||-3----3-3-3-3-|---3-3-3-3-3-3-x-|-3----3-3-3-3-|---3-3-3-3-3-3-x-|

    D                                           D 
e |-------10-10-10----|---10-10-10----10-10-x-|-------10-10-10----|---10-10-10----10-10-x-|
B |-------10-10-10----|---10-10-10----10-10-x-|-------10-10-10----|---10-10-10----10-10-x-|
G |-------11-11-11----|---11-11-11----11-11-x-|-------11-11-11----|---11-11-11----11-11-x-|
D |-------12-12-12----|---12-12-12----12-12-x-|-------12-12-12----|---12-12-12----12-12-x-|
A |-12----12-12-12-12-|---12-12-12-12-12-12-x-|-12----12-12-12-12-|---12-12-12-12-12-12-x-|
E |-10----10-10-10-10-|---10-10-10-10-10-10-x-|-10----10-10-10-10-|---10-10-10-10-10-10-x-|

    Em                               Em 
e |------7-7-7---|---7-7-7---7-7-x-|------7-7-7---|---7-7-7---7-7-x-|
B |------8-8-8---|---8-8-8---8-8-x-|------8-8-8---|---8-8-8---8-8-x-|
G |------9-9-9---|---9-9-9---9-9-x-|------9-9-9---|---9-9-9---9-9-x-|
D |------9-9-9---|---9-9-9---9-9-x-|------9-9-9---|---9-9-9---9-9-x-|
A |-7----7-7-7-7-|---7-7-7-7-7-7-x-|-7----7-7-7-7-|---7-7-7-7-7-7-x-|
E |-7----7-7-7-7-|---7-7-7-7-7-7-x-|-7----7-7-7-7-|---7-7-7-7-7-7-x-|

    C                                           C 
e |-------8--8--8-----|---8--8--8-----8--8--x-|-------8--8--8-----|---8--8--8-----8--8--x-||
B |-------8--8--8-----|---8--8--8-----8--8--x-|-------8--8--8-----|---8--8--8-----8--8--x-||
G |-------9--9--9-----|---9--9--9-----9--9--x-|-------9--9--9-----|---9--9--9-----9--9--x-|| (x3)
D |-------10-10-10----|---10-10-10----10-10-x-|-------10-10-10----|---10-10-10----10-10-x-||
A |-10----10-10-10-10-|---10-10-10-10-10-10-x-|-10----10-10-10-10-|---10-10-10-10-10-10-x-||
E |-8-----8--8--8--8--|---8--8--8--8--8--8--x-|-8-----8--8--8--8--|---8--8--8--8--8--8--x-||

    G 
e |-3-----------------||
B |-3-----------------||
G |-4-----------------||
D |-5-----------------||
A |-5-----------------||
E |-3-----------------||


PAROLES:

C'est se sortir du lit, c'est se trainer dehors
C'est se nourrir aussi, même si t'es pas d'accord
C'est se laisser de la place, se mettre dans un coin
C'est se garder de l'espace sans être jamais loin

C'est toi c'est moi c'est nous, c'est que ça
C'est que ça et c'est tout et c'est déjà
C'est toi c'est moi c'est nous et c'est déjà beaucoup

C'est remonter à la surface c'est, pousser sur les pieds
Se regarder en face si, tu veux c'est crier
C'est tout dans un sourire, c'est rien qu'une caresse
C'est marcher tous les deux, c'est se tenir le ventre
Ce que j'essaie ce que je peux c'est, si tu veux on rentre
C'est lire dans tes soupirs et c'est traduire tes SOS

C'est toi c'est moi c'est nous, c'est que ça
C'est que ça et c'est tout et c'est déjà
C'est toi c'est moi c'est nous et c'est déjà beaucoup

C'est pas grand chose à faire, c'est se laisser aller
C'est savoir se taire et c'est aussi savoir se faire engueuler
C'est faire un peu d'humour, c'est tenter un clin d'oeil
C'est de la tendresse parler pour ne rien dire
C'est t'aimer sans cesse pour le meilleur et pour le pire
Et faire un peu l'amour c'est aussi faire le deuil

C'est toi c'est moi c'est nous, c'est que ça
C'est que ça et c'est tout et c'est déjà
C'est toi c'est moi c'est nous et c'est déjà beaucoup
C'est toi c'est moi c'est nous c'est que ça et c'est tout

C'est toi c'est moi c'est nous, c'est que ça
C'est que ça et c'est tout et c'est déjà
C'est toi c'est moi c'est nous et c'est déjà beaucoup

C'est se sortir du lit, c'est se trainer dehors


Imprimer la tab Imprimer la tab

Commentez la partition de C'est toi