Cours de guitare Cours de guitare | Nouveautés | Top 100 | Tous les accords | Blog
# a b c d e f g h i j k l m n o p q r s t u v w x y z demander une tab

Wicked game tab


Tablature de la chanson « Wicked game » de Chris Isaak.

INTRO:  Bm	A	E

|------------------------------------|    
|----6b7-7s4*----6b7-5-3-2-0---------|    
|4b2--------4--4---------------2---1-|    
|-----------------------------4---2--|    
|------------------------------------|    
|------------------------------------|            
                 
Accompagnements
|------------|                  |-----------|
|------------|Acc  1            |-----------| Acc 2
|----2---1---|                  |----1-2-4--|
|--4---2-----|                  |--2--------|
|------------|                  |-----------|
|------------|                  |-----------|

|-------0--------------0--------------------------|                  
|----3----3---------3----3------------------------|Acc 3            
|--4----------4---4---------4--------1---1s2s4----|                  
|----------------------------------2--------------|                  
|-2----2----2---0-----0----0-----2----------------|                  
|------------------------------0--------0---------|                  

|---2-----0-------------------------------------------|                  
|-----3-----3----3p2---2p0----------------------------|Acc 4            
|--------------------------------2---1-------1s2s4----|                  
|--------------------------------2---2----------------|                  
|-2-----2------0-----0------2-------------------------|                  
|------------------------------0---0--------0---------|  

Couplet 1:
Bm                         A                       E   {Acc 1}
The world was on fire and no one could save me but you.
Bm                            A                    E   {Acc 2}
It's strange what desire will make foolish people do.
Bm                     A                     E   {Acc 1}
I never dreamed that I'd meet somebody like you.
Bm                     A                     E   {Acc 2}
I never dreamed that I'd knew somebody like you.

Refrain:
Bm A                   E                  {Acc 3}
I don't want to fall in love. (This world is only gonna break your heart)
Bm A                   E                  {Acc 3}
I don't want to fall in love. (This world is only gonna break your heart)
         {Acc 4}          
With you.         With you.        (This world is only gonna break your heart)

Couplet 2:
Bm             A           E                        {Acc 1}
What a wicked game to play, to make me feel this way.
Bm               A        E                       {Acc 2}
What a wicked thing to do, to let me dream of you.
Bm              A          E                        {Acc 1}
What a wicked thing to say, you never felt this way.
Bm              A         E                           {Acc 2}
What a wicked thing to do, to make me dream of you and,

Refrain:
Bm A                   E                  {Acc 3}
I don't want to fall in love. (This world is only gonna break your heart)
Bm A                   E                  {Acc 3}
I don't want to fall in love. (This world is only gonna break your heart)
         {intro}          {Acc 4}
With you.

Couplet 3:
Bm                         A                       E   {Acc 1}
The world was on fire and no one could save me but you.
Bm                            A                    E   {Acc 2}
It's strange what desire will make foolish people do.
Bm                     A                     E   {Acc 1}
I never dreamed that I'd love somebody like you.
Bm                     A                     E   {Acc 2}
I never dreamed that I'd loose somebody like you no,

Chrous:
Bm A                   E                  {Acc 3}
I don't want to fall in love. (This world is only gonna break your heart)
Bm A                   E                  {Acc 3}
I don't want to fall in love. (This world is only gonna break your heart)
         {Acc 4}          {Acc 4}
With you.         With you.        (This world is only gonna break your heart)
Bm       A       E
Nobody loves no one.


Imprimer la tab Imprimer la tab

Commentez la partition de Wicked game