Cours de guitare Cours de guitare | Nouveautés | Top 100 | Tous les accords | Blog
# a b c d e f g h i j k l m n o p q r s t u v w x y z demander une tab

Come along tab


Accords guitare de la chanson « Come along » de Titiyo.

Accords utilisés:
Bbm:    688666
Eb:     x68886
Ab:     466544
C#maj7: x46564
Edim:   x7898x
Fm:     x8101098

INTRO:
e|---------------|---------------|
b|---------------|---------------|
G|*-------5------|----------5---*| (x3)
D|*3----/6------3|-----/8\6-----*| 
A|-3----/6------3|-----/8\6------|
E|---------------|---------------|

COUPLET:
e|---------------|---------------|
b|---------------|---------------|
G|*-------5------|----------5---*| (x3)
D|*3----/6------3|-----/8\6-----*| 
A|-3----/6------3|-----/8\6------|
E|---------------|---------------|

e---------------|---------------|
b-/6------------|---------------|
G-/6-----/5-----|-------------5-|
D-/6-----/6----3|--------/8\6---| 
A--------/6----3|--------/8\6---|
E---------------|---------------|

REFRAIN:
e|---------------|---------------|
b|---------------|---------------|
G|*-------5------|----------5---*| (x4)
D|*3----/6------3|-----/8\6-----*| 
A|-3----/6------3|-----/8\6------|
E|---------------|---------------|

COUPLET:
Play with it while you have hands
Dust settles, cities turn to sand
Trespassing this is their land
Time flies, make a statement, take a stand

REFRAIN:
Come along now, come along with me
Come along now, come along and you'll see
What it's like to be free
Come along, come along with me
Come along now, come along and you'll see
What it's like to be free, yeah

Bbm               Eb
  Come along now, come along with me
Ab         C#maj7
  And I’ll ease your pain
Bbm           Eb
  Come along, Come along with me
Ab          C#maj7
  And let’s seize this day
Bbm           Eb     Edim      Fm           
  Come along, come along with me

COUPLET:
Stay out, stay clear but stay close
Friends, foes, God only knows
Let's be the thorn on the rose
Time flies, make a statement, strike a pose

REFRAIN:
Come along now, come along with me
Come along now, come along and you'll see
What it's like to be free
Come along, come along with me
Come along now, come along and you'll see
What it's like to be free, yeah

Bbm               Eb
  Come along now, come along with me
Ab         C#maj7
  And I’ll ease your pain
Bbm           Eb
  Come along, Come along with me
Ab          C#maj7
  And let’s seize this day
Bbm           Eb     Edim      Fm           
  Come along, come along with me

REFRAIN:
Come along now, come along with me
Come along now, come along and you'll see
What it's like to be free
Come along, come along with me
Come along now, come along and you'll see
What it's like to be free, yeah

Bbm               Eb
  Come along now, come along with me
Ab         C#maj7
  And I’ll ease your pain
Bbm           Eb
  Come along, Come along with me
Ab          C#maj7
  And let’s seize this day
Bbm    Eb         Edim   Fm
  Ooh, come along with me


Imprimer la tab Imprimer la tab

Commentez la partition de Come along