Cours de guitare Cours de guitare | Nouveautés | Top 100 | Tous les accords | Blog
# a b c d e f g h i j k l m n o p q r s t u v w x y z demander une tab

Rois demain tab


Tablature guitare de la chanson « Rois demain » de Damien Saez.

Accords utilisés:
Am :      002210
G6 :      320030
Asus4 :   002230
G :       032033
G6_2 :    320031
G7 :      320000
G7_2 :    320001
 
 
  Am                 Asus4 G6              G7 G6 Am
|----0--0--0-----0--0------0-----0----0--0--1-0--0--|
|----1--1--1-1---1--1---3--3--3--3----3--3--3-3--1--|
|----2--2----2---2--2---2--0--0--0--0-0--0--0-0--2--|
|-2--2-------2---2------2--0--0--0--0-0--0--0----2--|
|-0----------0-------------2--------2-2----------0--|
|-------------------------------------3-------------|
... Quand tu prendras la mer ...
 
|----0--0--0-----0--0------0-----0----0--0--0-1--0--|
|----1--1--1-1---1--1---3--3--3--3----3--3--3-3--1--|
|----2--2----2---2--0---0--0--0--0--0-0--0--0-0--2--|
|-2--2-------2---2--0---0--0--0--0--0-0--0--0----2--|
|-0----------0-------------2--------2-2----------0--|
|-------------------------------------3-------------|
... Quand tu verras la terre
 
|----0--0--0-----0--0------0-----0----0--0--1----0--|
|----1--1--1-1---1--1---3--3--3--3----3--3--3-3--1--|
|----2--2----2---2--2---2--0--0--0--0-0--0--0----2--|
|-2--2-------2---2------2--0--0--0--0-0--0--0----2--|
|-0----------0-------------2--------2-2----------0--|
|-------------------------------------3-------------|
 
|----------------------------------------0--0-1--0--|
|----1--1--1-1---1--1--------------------0--0-0--1--|
|----2--2----2---2--2---2--0--0--0--0-0--0--0-0--2--|
|-2--2-------2---2------2--0--0--0--0-0--0--0----2--|
|-0----------0-------------2--------2-2----------0--|
|-------------------------------------3-------------|
... Comme un point de lumière ...
 
Reprendre une fois l’intégralité des 4 premières mesures
Puis Jouer cette mesure jusqu’à environ 3’30
 
 Am                           G
|---0-0--0-0-0----0-0--0---------0-0--0-0-0----0-0--0-0---|
|---1-1--1-1-1-1--1-1--1-1--0----3-3--3-3-3-0--3-3--0-0---|
|-2-2-2----2-2-2--2-2----2--0--0-0-0----0-0-0--0-0----0---|
|-2-2------2---2--2------2--0--0-0------0---0--0----------|
|-0------------0---------------2--------2---2--2----------|
|-------------------------------------------3-------------|
 
A Partir de 3’30
Am                           G
|---0-0--0-0-0----0-0--0---------3-3--3-3-3----3-3--3-0---|
|---1-1--1-1-1-1--1-1--1-1--0----3-3--3-3-3-0--3-3--0-0---|
|-2-2-2----2-2-2--2-2----2--0--0-0-0----0-0-0--0-0----0---|
|-2-2------2---2--2------2--0--0-0------0---0--0----------|
|-0------------0---------------2--------2---2--2----------|
|-------------------------------------------3-------------|

Paroles :
Quand tu prendras la mer elle sera sémaphore
Quand tu verras la terre elle deviendra le port
quand t’auras plus le ciel elle sera ton étoile
comme un point de lumière vient éclairer la toile
de peintures en dessins on dessine nos vies
on s’ébat dans les seins dans les seins on s’écrit
on crie tout notre amour à ceux qui n’entendent pas
a chanter sur les toits sur qu’on cherche sa voie
elle fera couler ruisseau quand t’auras plus les armes
quand tes yeux n’auront plus oui, qu’à sonner l’alarme
quand l’horizon devant ne sera que la plaine
elle deviendra colline elle deviendra la cime 
quand tu chercheras trop oui, à quoi tout ça rime
quand t’auras tout vendu ton âme et ta sublime
elle te fera les gestes qui font les poésies
et puis qui sait dedans oui ce qui fait la vie
qu’importe les chemins que nous prendrons ensembles
qu’importe sous quels cieux seront nos mains qui tremblent
et puis si la vieillesse vient frapper à la porte
c’est qu’on aura vaincu ce temps qui nous escorte
je serai avec toi combattant impossible
je t’apprendrai à voir ce qu’on garde invisible
et s’il faut que chaque jour je devienne soleil
pour éteindre la nuit pour éclairer ton ciel 
oui nous serons rois demain mon amour toi et moi
j’irai chercher de l’or pour chacun de tes doigts
et quand les océans te monteront aux cils
j’irai au fond des mers du noir de tes pupilles
et s’il faut que chaque jour je devienne soleil
pour éteindre les nuits pour éclairer ton ciel
nous serons rois demain mon amour toi et moi
j’irai trouver de l’or pour chacun de tes doigts
et quand les océans viendront noyer nos terres
nous suivrons les printemps nous suivrons la lumière
oui quand les océans viendront noyer la terre
nous serons le printemps nous serons la lumière


Imprimer la tab Imprimer la tab

Commentez la partition de Rois demain