Cours de guitare Cours de guitare | Nouveautés | Top 100 | Tous les accords | Blog
# a b c d e f g h i j k l m n o p q r s t u v w x y z demander une tab

Day tripper tab


Tablature guitare de la chanson « Day tripper » des Beatles.

RIFF 1:                               RIFF 2:
|-----------------------------        |----------------------------
|-----------------------------        |----------------------------
|-----------------------------        |-----------2-0-----4----0-2-
|-----------2---0---4---0-2---        |---------2-------2----2-----
|---------2-------2---2-------        |-0---3-4--------------------
|-0---3-4---------------------        |----------------------------

INTRO: RIFF 1 (x6) 
 
RIFF 1 (x2)
Got a good reason, for taking the easy way out
RIFF 2 (x1)		RIFF 1 (x1)
Got a good reason, for taking the easy way out
          F#
She was a day____ tripper, one way ticket yeah
           A7     G#7          C#               B
It took me so____ long to find out, and I found out
 
E7
She's a big teaser, she took me half the way there
A7                     E7
She's a big teaser, she took me half the way there
          F#
She's a day tripper, one way ticket, yeah
           A7     G#7          C#               B
It took me so long to find out, and I found out

RIFF 3:
E-------------------------------------------------
B----------------------2--------------------------
G-4-----------4--2-----------2--4-----------------
D-4--0--1--4--------4-----4-----------------------
A-2-----------------------------------------------
E-------------------------------------------------

E7
Tried to please her, but she only played one night stands
A7                    E7
Tried to please her, but she only played one night stands
          F#
She was a day tripper, Sunday driver, yeah
           A7     G#7          C#               B
It took me so long to find out, and I found out

RIFF 1


Imprimer la tab Imprimer la tab

Commentez la partition de Day tripper