Cours de guitare Cours de guitare | Nouveautés | Top 100 | Tous les accords | Blog
# a b c d e f g h i j k l m n o p q r s t u v w x y z demander une tab

Denver, le dernier dinosaure tab


Accords guitare et paroles du dessin animé « Denver le dernier dinosaure ».

INTRO:

    C5              G5              F5      C5      G5
e-|------------------------------------------------------------------|
B-|------------------------------------------------------------------|
G-|-5---------------------------------------5------------------------|
D-|-5---------------5---------------3-------5-------5----------------|
A-|-3---------------5---------------3-------3-------5----------------|
E-|-----------------3---------------1---------------3----------------|

                                                    Un, deux, trois, quatre !

    G5              D5              C5      G5   D5
e-|------------------------------------------------------------------|
B-|------------------------------------------------------------------|
G-|-----------------7---7-----------5-------------7------------------|
D-|-5---5-----------7---7-----------5-------5-----7------------------|
A-|-5---5-----------5---5-----------3-------5-----5------------2-3-4-|
E-|-3---3-----------------------------------3----------2-3-4-5-------|


D                  A           G        D            A            D
Denver, le dernier dinosaure, c'est mon ami et bien plus encore !
D                  A           G          D	      A		     D	     C
Denver, le dernier dinosaure, vient d'un monde jamais vuuuuuuuuu  encore 

  A               G  A              G  A                    G           A    
Venu de la torride et ancienne jungle, c'est le plus gentil de tous les animaux !


D                  A           G        D            A            D
Denver, le dernier dinosaure, c'est mon ami et bien plus encore !
D                  A           G          D	      A		     D	     C
Denver, le dernier dinosaure, vient d'un monde jamais vuuuuuuuuu  encore 


   A                  G     A                G       A                 G       A    
Partout où nous allons, les gens sont sidérés, de se trouver nez à nez avec un grand dino !
   A                  G     A                    G    A             G    C    
Depuis la nuit des temps, jusque sous les projecteurs, Il met dans notre vie, 
            D      E
un peu plus de bonheur
      

A                  E           D        A            E            A
Denver, le dernier dinosaure, c'est mon ami et bien plus encore !
A                  E           D         A
Denver, le dernier dinosaure, vient d'un monde jamais...


e-|---------------------------------------------------------------------------|
B-|---------------------------------------------------------------------------|
G-|---------------------------------------------------------------------------|
D-|-------------------------2---2---------------------------2---3---7-7-5-7---|
A-|-------------2-----5-------------0-----2-----3-----5-----------------------|
E-|-0-----4-------------------------------------------------------------------|
 ...vuuuuuuuuuuuuuuuuuuuuuuu...  en-cooooooooooooooooooooooore !


Imprimer la tab Imprimer la tab

Commentez la partition de Denver, le dernier dinosaure