Cours de guitare Cours de guitare | Nouveautés | Top 100 | Tous les accords | Blog
# a b c d e f g h i j k l m n o p q r s t u v w x y z demander une tab

Drive tab


Tablature guitare de la chanson « Drive » de Incubus.

INTRO, COUPLETS, REFRAIN:

e|-------0-0--------------------------------------
B|-------8-8------7---------5-5-----5-------------
G|-------0-0------7---------4-4-----0-------------
D|----9-----------5---------5-5-----5-------------
A|-------------7-------0-3----------0-------------
E|-0------------------------------5-5-------------

PRE-REFRIN ET OUTRO:

e|------------------0-0---0----0--------0-0-0-0--0-0---0----0-----|
b|-----5-5-----5-5--2-2---2h3—-2h3------3-3-3-3--2-2---2h3--2h3---|
g|-----4-4-----4-4--0-0---0----0--------0-0-0-0--0-0---0----0-----|
d|---5-5-5-----5-5--2-2---2----2------2-2-2-2-2--2-2---2----2-----|
a|-3---3-3-3-3-3-3--0-0-0-0—-0-0--0--3--3-3-3-3--0-0-0-0—-0-0--0--|
e|----------------------------------------------------------------|

e|------------------0-0---0----0--------0-0-0-0--0----------------|
b|-----5-5-----5-5--2-2---2h3—-2h3------3-3-3-3--2----------------|
g|-----4-4-----4-4--0-0---0----0--------0-0-0-0--0----------------|
d|---5-5-5-----5-5--2-2---2----2------2-2-2-2-2--2----------------|
a|-3---3-3-3-3-3-3--0-0-0-0—-0-0--0--3--3-3-3-3--0----------------|
e|----------------------------------------------------------------| 

COUPLET:
Sometimes, I feel the fear of uncertainty stinging clear
And I can't help but ask myself how much I'll let the
Fear take the wheel and steer

PRE-REFRAIN:
It's driven me before, and it seems to have a vague, haunting mass appeal
But lately I am beginning to find that
I should be the one behind the wheel

REFRAIN:
Whatever tomorrow brings, I'll be there with open arms and open eyes
Whatever tomorrow brings, I'll be there
I'll be there

COUPLET:
So if I decide to waiver my chance to be one of the hive
Will I choose water over wine and hold my own and drive? Ahaa-aa-aa-aa.

PRE-REFRAIN:
It's driven me before and it seems to be the way that everyone else gets around
But lately I'm beginning to find that
When I drive myself my light is found

REFRAIN:
So whatever tomorrow brings, I'll be there with open arms and open eyes. Yeah
Whatever tomorrow brings, I'll be there
I'll be there

Would you choose water over wine..
Hold the wheel and drive?

REFRAIN:
So whatever tomorrow brings, I'll be there with open arms and open eyes. Yeah
Whatever tomorrow brings, I'll be there
I'll be there 

OUTRO


Imprimer la tab Imprimer la tab

Commentez la partition de Drive