Cours de guitare Cours de guitare | Nouveautés | Top 100 | Tous les accords | Blog
# a b c d e f g h i j k l m n o p q r s t u v w x y z demander une tab

Enta omri tab


Tablature guitare de la chanson « Enta Omri » de Um Kalthoum.

INTRO (x4)

E:-----------------12p11p9-11------------------------------------------------|
B:----------------------------12-10-9----------------------------------------|
G:---------------------------------------------------------------------------|
D:---------------------------------------------------------------------------|
A:-11------------------------------------------------------------------------|
E:----16-16-16-16------------------------------------------------------------|

GUITARE

E:---------------------------------------------------------------------------|
B:---------------------------------------------------------------------------|
G:-8-9-9-8-8-8-9-9---6-8-8-6-6-6-8-8---4-6-6-4-8-6-8-4-2-1-------------------|
D:---------------------------------------------------------------------------|
A:---------------------------------------------------------------------------|
E:---------------------------------------------------------------------------|

VIOLON

E:---------------------------------------------------------------------------|
B:---------------------------------------------------------------------------|
G:---------------------------------------------------------------------------|
D:-----------------------6---------------------------------------------------|
A:-6-9-8---4-7-6---6-9-7---7-6-----------------------------------------------|
E:---------------------------------------------------------------------------|


E:---------------------------------------------------------------------------|
B:---------------------------------------------------------------------------|
G:-8-9-9-8-8-8-9-9-------6-8-8-6-6-6-8-8-------4-6-6-4-8-6-8-4-2-1-----------|
D:---------------------------------------------------------------------------|
A:-----------------6-7-9-----------------4-6-7-------------------------------|
E:---------------------------------------------------------------------------|

E:---------------------------------------------------------------------------|
B:-----------------------------------------------7/9-------------------------|
G:---------------------------------------------------------------------------|
D:-----------------------6---------------------------------------------------|
A:-6-9-8---4-7-6---6-9-7---7-6-7-9-11-12-11-9-11-----------------------------|
E:---------------------------------------------------------------------------|

E:---------------------------------------------------------------------------|
B:-------------------8/10----------------------------------------------------|
G:---------------------------------------------------------------------------|
D:----------11-9-8-9---------------------------------------------------------|
A:-6-7-9-11------------------------------------------------------------------|
E:---------------------------------------------------------------------------|

E:---------------------------------------------------------------------------|
B:---------------------------------------------------------------------------|
G:---------------------------------------------------------------------------|
D:---------------------------------------------------------------------------|
A:-6-7-9-11-12-12-11-9-11-6---12-12-11-9-11-6---12-12-11-9-8-9-11/16b--------|
E:---------------------------------------------------------------------------|



E:---------------------------------------------------------------------------|
B:---------------------------------------------------------------------------|
G:---------------------------------------------------------------------------|
D:---------------------------------------------------------------------------|
A:-16p13---15p11---13p9---11p8---10p6---8p5----------------------------------|
E:---------------------------------------------------------------------------|

E:---------------------------------------------------------------------------|
B:------------------9-7-10-9-------------------7-5-9-7-----------------------|
G:-8-9-9-8-8-8-9-11------------6-8-8-6-6-6-8-9-----------4-6-6-4-8-6-8-4-2-1-|
D:---------------------------------------------------------------------------|
A:---------------------------------------------------------------------------|
E:---------------------------------------------------------------------------|

E:---------------------------------------------------------------------------|
B:---------------------------------------------------------------------------|
G:---------------------------------------------------------------------------|
D:-----------------------6---------------------------------------------------|
A:-6-9-8---4-7-6---6-9-7---7-6-----------------------------------------------|
E:---------------------------------------------------------------------------|

E:---------------------------------------------------------------------------|
B:------------------9-7-10-9-------------------7-5-9-7-----------------------|
G:-8-9-9-8-8-8-9-11------------6-8-8-6-6-6-8-9-----------4-6-6-4-8-6-8-4-2-1-|
D:---------------------------------------------------------------------------|
A:---------------------------------------------------------------------------|
E:---------------------------------------------------------------------------|

E:---------------------------------------------------------------------------|
B:---------------------------------------------------------------------------|
G:---------------------------------------------------------------------------|
D:-----------------------6---------------------------------------------------|
A:-6-9-8---4-7-6---6-9-7---7-------------------------------------------------|
E:---------------------------------------------------------------------------|

E:---------------------------------------------------------------------------|
B:---------------------------------------------------------------------------|
G:---------------------------------------------------------------------------|
D:---------------------------------------------------------------------------|
A:---------------------------------------------------------------------------|
E:-11-12-12-11-11-11-12-12---9-11-11-9-9-9-11-11---7-9-9-7-11-9-11-7-5-4-----|

E:---------------------------------------------------------------------------|
B:---------------------------------------------------------------------------|
G:---------------------------------------------------------------------------|
D:-----------------------6---------------------------------------------------|
A:-6-9-8---4-7-6---6-9-7---7-------------------------------------------------|
E:---------------------------------------------------------------------------|

E:---------------------------------------------------------------------------|
B:---------------------------------------------------------------------------|
G:---------------------------------------------------------------------------|
D:---------------------------------------------------------------------------|
A:---------------------------------------------------------------------------|
E:-11-12-12-11-11-11-12-12---9-11-11-9-9-9-11-11---7-9-9-7-11-9-11-7-5-4-----|

OUTRO (x4)

E:------------      ------------|
B:------------      ------------|
G:------------  ou  ------------|
D:------------      ------------|
A:------------      -2-0-4------|
E:-7-5-9-4----      -------4----|


Imprimer la tab Imprimer la tab

Un commentaire »

  • djamel :

    bonjour
    que veut dire le p devant le chiffre 12
    pour jouer je commence par les chiffres 16 et il n y a que 2 tablatures pour la guitare
    cordialement.

Commentez la partition de Enta omri