Cours de guitare Cours de guitare | Nouveautés | Top 100 | Tous les accords | Blog
# a b c d e f g h i j k l m n o p q r s t u v w x y z demander une tab

Everlong tab


Tablature guitare de la chanson « Everlong » des Foo Fighters.

Accordage : Drop D

Intro/Couplets:
   D
e|-------------------------------------|
B|-------------------------------------|
G|-------------------------------------|
D|-----11----11-11---11---11---11-11-11|
A|-----9-----9--9----9----9----9--9--9-|
D|-0-0----0-------0-----0----0---------|

   Bm
e|-------------------------------------|
B|-------------------------------------|
G|-------------------------------------|
D|-----11----11-11---11---11---11-11-11|
A|-----9-----9--9----9----9----9--9--9-|
D|-9-9----9-------9----9----9----------|

   G                Bm
e|-------------------------------------------------------|
B|-------------------------------------------------------|
G|-------------------------------------------------------|
D|-----7-7-----7-7------11-11----11-11---11-11------11-11|
A|-----5-5-----5-5------9--9-----9--9----9--9-------9--9-|
D|-5-5-----5-5------9-9------9-9------9-9-------9-9------|

D
Hello
     Bm
I've waited here for you
G   Bm
 Everlong 

D
Tonight
     Bm
I throw myself into
G   		  Bm
And out of the red, out of her head she sang

REJOUER INTRO (D Bm G Bm)

D
Come down
    Bm
And waste away with me
G      Bm
Down with me

D
Slow how
     Bm
You wanted it to be
G   		 Bm
I'm over my head, out of her head she sang


PRE-REFRAIN:
   Db    D     E     F#          G  F# E
e|-----------------------------------------------|
B|-----------------------------------------------|
G|-6-6-6-7-7-7-9-9-9-11-11-11-11-12-11-9-9-9-9-9-|
D|-----------------------------------------------|
A|-4-4-4-5-5-5-7-7-7-9--9--9--9--10-9--7-7-7-7-7-|
D|-0-0-0-0-0-0-0-0-0-0--0--0--0--0--0--0-0-0-0-0-|

Db D E F# G F# E    Db D E F# G F# E             Db D E F# G F# E
                And I    wonder      When I sing along with you

REFRAIN:
Bm                         G                 D                    
 If everything could ever feel this real forever
Bm                       G            D                          
 If anything could ever be this good again
Bm                         G                                       
 The only thing I'll ever ask of you
D                              A               G                    
  You've got to promise not to stop when I say when She sang 

REJOUER INTRO (D Bm G Bm)

D
Breathe out     
    Bm
so I can breathe you in
G     Bm
Hold you in 

   D
And now 
   Bm
I know you've always been
G               Bm
Out of your head, out of my head I sang

PRE-REFRAIN:
   Db    D     E     F#          G  F# E
e|-----------------------------------------------|
B|-----------------------------------------------|
G|-6-6-6-7-7-7-9-9-9-11-11-11-11-12-11-9-9-9-9-9-|
D|-----------------------------------------------|
A|-4-4-4-5-5-5-7-7-7-9--9--9--9--10-9--7-7-7-7-7-|
D|-0-0-0-0-0-0-0-0-0-0--0--0--0--0--0--0-0-0-0-0-|

Db D E F# G F# E    Db D E F# G F# E             Db D E F# G F# E
                And I    wonder      When I sing along with you

REFRAIN:
Bm                         G                 D                    
 If everything could ever feel this real forever
Bm                       G            D                          
 If anything could ever be this good again
Bm                         G                                       
 The only thing I'll ever ask of you
D                              A               G                    
  You've got to promise not to stop when I say when She sang 

REJOUER INTRO (D Bm G Bm) x2

REFRAIN:
Bm                         G                 D                    
 If everything could ever feel this real forever
Bm                       G            D                          
 If anything could ever be this good again
Bm                         G                                       
 The only thing I'll ever ask of you
D                              A               G                    
  You've got to promise not to stop when I say when She sang 


Imprimer la tab Imprimer la tab

Commentez la partition de Everlong