Cours de guitare Cours de guitare | Nouveautés | Top 100 | Tous les accords | Blog
# a b c d e f g h i j k l m n o p q r s t u v w x y z demander une tab

Friend is a four letter word tab


Accords guitare de la chanson « Friend is a four letter word » de Cake.

INTRO:

     Am                       C                       F
e:---------------0-----------------------0-----------------------1-----------|
B:------------1-----1-----------------1-----1-----------------1-----1--------|
G:---------2-----------2-----------0-----------0-----------2-----------2-----|
D:------2-----------------2-----2-----------------2-----3-----------------3--|
A:---0-----------------------3-----------------------------------------------|
E:---------------------------------------------------1-----------------------|

     D7
e:------------2--------------------------------------------------------------|
B:---------1-----1-----------------------------------------------------------|
G:------2-----------2--------------------------------------------------------|
D:---0-----------------0-----------------------------------------------------|
A:0--------------------------------------------------------------------------|
E:---------------------------------------------------------------------------|

   Am
To me
            C
Coming from you,
F           D7          Am          C
Friend is a four letter word
F           D7              Am
End is the only part of the word
       C
That I heard,
        F         D7
Call me morbid or absurd,

REFRAIN:
       Am
But to meeeeeeeeee,
       C
Coming from you,
F           D7		  Am
Friend is a four letter word

Am        C         F         D7  (x5)

   Am
To me,
            C
Coming from you,
F           D7          Am          C
Friend is a four letter word
F      D7               Am
End is the only part of the word
       C
That I heard,
        F         D7
Call me morbid or absurd,

REFRAIN:
       Am
But to meeeeeeeeee,
       C
Coming from you,
F           D7		  Am
Friend is a four letter word

PONT:

          Em
When I go fishing
        Am
for the words
     Em                Am
I am wishing you would say to me,
     F           C
I am really only praying that
    G                    D7
The words you'll soon be saying
      Am
Might betray
    Em           Am           
The way you feel about me

Am
To me,
            C
Coming from you,
F           D7          Am

REFRAIN:
       Am
But to meeeeeeeeee,
       C
Coming from you,
F           D7		  Am
Friend is a four letter word


Imprimer la tab Imprimer la tab

Commentez la partition de Friend is a four letter word