Cours de guitare Cours de guitare | Nouveautés | Top 100 | Tous les accords | Blog
# a b c d e f g h i j k l m n o p q r s t u v w x y z demander une tab

Hold back the river tab


Accords guitare de la chanson « Hold back the river » de James Bay.

NTRO/COUPLET:
e|-----------------------------------------------------------------------8~~--|
B|-6----8--10----13--15-----13--10----13--15-----13--10----10--8---6--5-------|
G|----------------------------------------------------------------------------|
D|----------------------------------------------------------------------------|
A|-5----7--8-----12--13-----12--8-----12--13-----12--8-----8---7---7--7-------|
E|----------------------------------------------------------------------------|

Dm7      F          Bb     F
Tried to keep you close to me,
    Bb       F        C
But life got in between
Dm7       F         Bb      F
Tried to square not being there
     Bb        F                C
But think that I should have been

REFRAIN:
Bb
Hold back the river, let me look in your eyes
Bb
Hold back the river so I
F
Can stop for a minute and see where you hide
F
Hold back the river, hold back

Dm7    F     Bb        F
Once upon a different life
    Bb       F                C
We rode our bikes into the sky
    Dm7      F      Bb        F
But now we crawl against the tide
      Bb       F                C
Those distant days are flashing by

REFRAIN:
Bb
Hold back the river, let me look in your eyes

Hold back the river so I
F                         
Can stop for a minute and be by your side
                      C
Hold back the river, hold back
Bb
Hold back the river, let me look in your eyes

Hold back the river so I
F
Can stop for a minute and see where you hide
                      C
Hold back the river, hold back

Dm7  F    Bb   F
Ooh oho, oho, oho,
 Bb   F    C   
Oho, oho, ohooh

PONT:
F                                     Bb
Lonely water, lonely water won't you let us wander
Gm
Let us hold each other
F                                     Bb
Lonely water, lonely water won't you let us wander
Gm
Let us hold each other

REFRAIN:
Bb
Hold back the river, let me look in your eyes

Hold back the river so I
F                         
Can stop for a minute and be by your side
                      C
Hold back the river, hold back
Bb
Hold back the river, let me look in your eyes

Hold back the river so I
F
Can stop for a minute and be by your side
                      C
Hold back the river, ooh

PONT:
F                                     Bb
Lonely water, lonely water won't you let us wander
Gm
Let us hold each other
F                                     Bb
Lonely water, lonely water won't you let us wander
Gm
Let us hold each other

OUTRO:
e|---------------------------------------------------------------------|
B|-6----8--10----13--15-----13--10----13--15-----13--10----10--8--8~~--|
G|---------------------------------------------------------------------|
D|---------------------------------------------------------------------|
A|-5----7--8-----12--13-----12--8-----12--13-----12--8-----8---7-------|
E|---------------------------------------------------------------------|


Imprimer la tab Imprimer la tab

Commentez la partition de Hold back the river