Cours de guitare Cours de guitare | Nouveautés | Top 100 | Tous les accords | Blog
# a b c d e f g h i j k l m n o p q r s t u v w x y z demander une tab

Holiday tab


Tablature guitare de la chanson « Holiday » des Scorpions.

e|---1-------1------1-----1-----1------1----1-----1---------0-----0-----------|
B|-----3-------3------------3-----3-----------3-----3---------3-----3---------|
G|-------2-------2------------2-----2-----------2-----2---------2-----2-------|
D|-0------------------------------------------------------2-------------------|
A|---------------------3------------------1-----------------------------------|
E|----------------------------------------------------------------------------|

e|------5---------5-------5---------------------------------------------------|
B|---------5---------5--------------------------------------------------------|
G|------------2---------2-----------------------------------------------------|
D|--2-------------------------------------------------------------------------|
E|----------------------------------------------------------------------------|
E|----------------------------------------------------------------------------|

Dm
Let me take you far away
      C       A    Dm
You'd like a holiday
Dm
Let me take you far away
      C       A    Dm
You'd like a holiday
              C                Dm
Exchange the cold days for the sun
G              A
Good times and fun
Dm
Let me take you far away
      C       A    Dm  Dm7 Dm6 A4 A
You'd like a holiday
Dm 
Let me take you far away
      C       A    Dm
You'd like a holiday
Dm  
Let me take you far away
      C       A    Dm
You'd like a holiday
              C                 Dm
Exchange your troubles for some love
    G        A
Wherever you are
Dm
Let me take you far away
      C       A    Dm  Dm7 Dm6 A4 A
You'd like a holiday

Dm
Longing for the sun 'till it comes
       C             Bb
To the island without name
                Dm
Longing for the sun be welcome
C           Bb              Dm
On the island many miles away from home
      Dm          C              Bb
Be welcome on the island without name
                Dm
Longing for the sun 'till it comes
       C           Bb              Dm
To the island many miles away from home


Imprimer la tab Imprimer la tab

Commentez la partition de Holiday