Cours de guitare Cours de guitare | Nouveautés | Top 100 | Tous les accords | Blog
# a b c d e f g h i j k l m n o p q r s t u v w x y z demander une tab

In the army now tab


Accords guitare de la chanson « In the army now » de Status Quo.

INTRO:
   Dm    Am  Dm      C
e|-----5---|------10-8-|
B|-6-----8-|-10-8------|
G|---7-----|-----------|
D|---------|-----------|
A|---------|-----------|
E|---------|-----------|

Dm
A vacation in a foreign land

Uncle Sam does the best he can
              Gm
You're in the army now
                      Dm
Oh, oh, you're in the army now

Dm
Now you remember what the draftsman said

Nothing to do all day but stay in bed
              Gm
You're in the army now
                      Dm
Oh, oh, you're in the army now

Dm
You'll be the hero of the neighborhood

Nobody knows that you've left for good
              Gm
You're in the army now
Am                     Dm
Oh, oh, you're in the army now

Dm
Smiling faces as you wave to land

But once you get there no one gives a damn
              Gm
You're in the army now
Am                    Dm
Oh, oh, you're in the army now

REJOUER INTRO

Dm                                 
Hand grenades flying over your head


Em
Missiles flying over your head

If you wanna survive get out of bed
              Am
You're in the army now
Bm                    Am
Oh, oh, you're in the army now

Em
Shots ring out in the dead of night
                  
The sergeant calls "Stand up and fight!"
              Am
You're in the army now
Bm                    Am
Oh, oh, you're in the army now

Em
You've got your orders better shoot on sight
Em
Your finger's on the trigger but it don't seem right
              Am
You're in the army now
Bm                    Em
Oh, oh, you're in the army now
              Am
You're in the army now
Bm                    Em
Oh, oh, you're in the army now

SOLO:
e|--------15-19-17-15-h17------------15-19-17-15-h17---------|
B|-----17-------------------------17-------------------------|
G|-/16------------------------/16--------------------14-b16~-|
D|-----------------------------------------------------------|
A|------------------------17\--------------------------------|
E|------------------------17\--------------------------------|

Em
Night is falling and you just can't see

Is this illusion or reality?
              Am
You're in the army now
Bm                    Em
Oh, oh, you're in the army now
              Am
You're in the army now
Bm                    Em
Oh, oh, you're in the army now


   Dm                  Gm         Am
e|-------------------------10--------10~-|
B|--------------10~-11--------11~-10-----|
G|-----9-10~-12--------12~---------------|
D|-12~-----------------------------------|
A|---------------------------------------|
E|---------------------------------------|

e|-10----------|
B|-13-b15~~~~~-|
G|-------------|
D|-------------|
A|-------------|
E|-------------|

e|---------------------------|
B|------------------------12-|
G|-12-11-12-b14-r12-11-12----|
D|---------------------------|
A|---------------------------|
E|---------------------------|


Imprimer la tab Imprimer la tab

Un commentaire »

  • PIERRE :

    Bonne retranscription. Simple à lire et aisée, même pour un débutant.

Commentez la partition de In the army now