Cours de guitare Cours de guitare | Nouveautés | Top 100 | Tous les accords | Blog
# a b c d e f g h i j k l m n o p q r s t u v w x y z demander une tab

Letter to the lord tab


Tablature guitare de la chanson “Letter to the lord” de Irma.

CAPO 3

Intro :
       Bm
e ------------------------------------|
B ----3-x-5---3-x-5---3-x-5---3-x-5---|
G ----4-x-2---4-x-2---4-x-2---4-x-2---|
D ----4-x-4---4-x-4---4-x-4---4-x-4---|
A --2-------2-------2-------2---------|
M ------------------------------------|


Riff 1 :
      Bm       A       Em7      A  
e -------------------------------------|
B -----3-x-3---2-x-2---0-X-0---2-x-2---|
G -----4-x-4---2-x-2---0-X-0---2-x-2---|
D -----4-x-4---2-x-2---0-X-0---2-x-2---|
A ---2-------0---------------0---------|
M -------------------0-----------------|

Riff 2 :
      Bm       A        G       G  
e -------------------------------------|
B -----3-x-3---2-x-2---3-X-3---3-x-3---|
G -----4-x-4---2-x-2---0-X-0---0-x-0---|
D -----4-x-4---2-x-2---0-X-0---0-x-0---|
A ---2-------0-------------------------|
M -------------------3-------3---------|

Riff 3 :
      Bm       G        D       A  
e -------------3-x-3---2-x-2---0-x-0---|
B -----3-x-3---3-x-3---3-X-3---2-x-2---|
G -----4-x-4---0-x-0---2-X-2---2-x-2---|
D -----4-x-4---------0-----------------|
A ---2-----------------------0---------|
M -----------3-------------------------|

Refrain :
Bm  G  D  A


Riff1
I wrote a letter to the lord,
Begging him to send the chords 
That would make you stay by my side

	
He sent an A minor groove,
Just as you like it, something smooth
That doesn't hurt at all

Riff 2
Here comes the major in all its glory 
Forgive the failure says i'm sorry 
I asked if he could send the lines 

Riff 3                
But he said no, I didn't ask why
I took apen and laid it down

Refrain:  
I wrote a love song, make it yours
Take all the pieces, there's nothing wrong
It's no poetry, no symphony
But these are my words, These are my lines, this is my prayer

Cause every inch of my skin
Still holds the perfume of my sin
I tried to take it off so many times
I know this is my very last chance
No mercy, no kindness, no defense
I hope it comes naturally

Here comes the major in all its glory 
Forgive the failure says i'm sorry 
I asked if he could send the lines 
But he said no, I didn't ask why
I took apen and laid it down


Imprimer la tab Imprimer la tab

Commentez la partition de Letter to the lord