Cours de guitare Cours de guitare | Nouveautés | Top 100 | Tous les accords | Blog
# a b c d e f g h i j k l m n o p q r s t u v w x y z demander une tab

La panthère rose tab


Tablature guitare du thème du dessin animé « La panthère rose ».

e|---------------|
B|---------------|
G|---------------|
D|-6/7-8/9-------|
A|-4/5-6/7-------|
E|----------7--0-|

e|--------------------------------------------|
B|--------------------------------------------|
G|-----------------------5p4------------------|
D|-6/7-8/9--4h5------4h5------5-8-7---5-------|
A|-4/5-6/7-------6h7--------7-----------7-5-7-|
E|--------------------------------------------|

e|-----------------------------------|
B|-----------------------------------|
G|-----------------------5p4----9-8~-|
D|-6/7-8/9--4h5------4h5------5------|
A|-4/5-6/7-------6h7--------7--------|
E|-----------------------------------|

e|-----------------------------------------------|
B|-----------------------------------------------|
G|---------9-7-----------------------------------|
D|-6/7-8/9-----9-7-5---8p7-8p7-8p7-8p7-5---------|
A|-4/5-6/7-----------7-------------------7-5-7-7-|
E|-----------------------------------------------|


Imprimer la tab Imprimer la tab

Commentez la partition de La panthère rose