Cours de guitare Cours de guitare | Nouveautés | Top 100 | Tous les accords | Blog
# a b c d e f g h i j k l m n o p q r s t u v w x y z demander une tab

Like real people do tab


Tablature guitare de la chanson « Like real people do » de Hozier.

INTRO:

e|-----------------|
B|-----------------|
G|-----------------|
D|-----------------|
A|-----------------|
E|3-3-3-3-3-3-3-3-3|

e|0--------------------------------------------------------|
B|--3-0-----------------------0------------0---------------|
G|------0h2-0--4p2p0--0---------2-0-----0----2-0-0--0------|
D|------------------2---0-----------0h2--------------------|
A|-------------------------2-------------------------------|
E|3-3-3-3--3-3-3----3-3-3-3-3-3-3-3-3--3-3-3-3-3-3-3-3-----|

e|0--------------------------------------------------------|
B|--3-0-----------------------0----------------------------|
G|------2---0--4p2p0--0---------2-0-----0h2-2h4p2-0h2-0--0-|
D|------------------2---0-----------0h2--------------------|
A|-------------------------2-------------------------------|
E|3-3-3-3--3-3-3----3-3-3-3-3-3-3-3-3--3--3-3----3--3-3-3-3|

COUPET:

e|0-----------------------------------------------|
B|--3-0---------0-3-0-------0-3-0---------0-------|
G|------2--0--2--------2--2--------2--0-2---0--0--|
D|------------------------------------------------|
A|------------------------------------------------|
E|3-3-3-3-3-3-3-3-3-3-3-3-3-3-3-3-3-3-3-3-3-3-3-3-|

e|0-----------------------------------------------|
B|--3-0---------0-3-0-------0-3-0---------0-------|
G|------2--0--2--------2--2--------2--0-2---0--0--|
D|------------------------------------------------|
A|------------------------------------------------|
E|3-3-3-3-3-3-3-3-3-3-3-3-3-3-3-3-3-3-3-3-3-3-3-3-|

I had a thought, dear
However scary,
About that night,
The bugs and the dirt
Why were you digging?
What did you bury,
Before those hands pulled me
From the earth?

REFRAIN:

e|------------------------------------------------|
B|------------------------------------------------|
G|0-----------------------0-----------------0--0--|
D|--4-2-0-----0--2--0-------4-2-0-----0-2-4-------|
A|---------2-----------2-----------2--------------|
E|3-3-3-3-3-3-3-3-3-3-3-3-3-3-3-3-3-3-3-3-3-3-3-3-|

e|0-----------------------------------------------|
B|--3-0-------0-----------0-----------0-----------|
G|------2--0----2-0----0----2-0---------2-0-0--0--|
D|------------------2-----------2--0--------0-----|
A|------------------------------------------------|
E|3-3-3-3-3-3-3-3-3-3-3-3-3-3-3-3-3-3-3-3-3-3-3-3-|

I will not ask you where you came from,
I will not ask you and neither should you.

Honey just put your sweet lips on my lips
We should just kiss like real people do.

INTERLUDE:

e|0--------------------------------------------------------|
B|--3-0-----------------------0----------------------------|
G|------2---0--4p2p0--0---------2-0-----0h2-2h4p2-0h2-0--0-|
D|------------------2---0-----------0h2--------------------|
A|-------------------------2-------------------------------|
E|3-3-3-3--3-3-3----3-3-3-3-3-3-3-3-3--3--3-3----3--3-3-3-3|

COUPLET:

e|0-----------------------------------------------|
B|--3-0---------0-3-0-------0-3-0---------0-------|
G|------2--0--2--------2--2--------2--0-2---0--0--|
D|------------------------------------------------|
A|------------------------------------------------|
E|3-3-3-3-3-3-3-3-3-3-3-3-3-3-3-3-3-3-3-3-3-3-3-3-|

e|0-----------------------------------------------|
B|--3-0---------0-3-0-------0-3-0---------0-------|
G|------2--0--2--------2--2--------2--0-2---0--0--|
D|------------------------------------------------|
A|------------------------------------------------|
E|3-3-3-3-3-3-3-3-3-3-3-3-3-3-3-3-3-3-3-3-3-3-3-3-|

I knew that look dear,
Eyes always seeking
Was there in someone
That dug long ago,
So I will not ask you
Why you were creeping,
In some sad way I already know.

REFRAIN:

e|------------------------------------------------|
B|------------------------------------------------|
G|0-----------------------0-----------------0--0--|
D|--4-2-0-----0--2--0-------4-2-0-----0-2-4-------|
A|---------2-----------2-----------2--------------|
E|3-3-3-3-3-3-3-3-3-3-3-3-3-3-3-3-3-3-3-3-3-3-3-3-|

e|0-----------------------------------------------|
B|--3-0-------0-----------0-----------0-----------|
G|------2--0----2-0----0----2-0---------2-0-0--0--|
D|------------------2-----------2--0--------0-----|
A|------------------------------------------------|
E|3-3-3-3-3-3-3-3-3-3-3-3-3-3-3-3-3-3-3-3-3-3-3-3-|

So I will not ask you where you came from,
I would not ask and neither would you.

Honey just put your sweet lips on my lips
We should just kiss like real people do.

INTERLUDE:

e|0---------------------------------------------------------|
B|--3-0-----------------------0-----------------------------|
G|------2---0--4p2p0--0---------2-0-----0h2-2h4p2-0h2-0--0--|
D|------------------2---0-----------0h2---------------------|
A|-------------------------2--------------------------------|
E|3-3-3-3--3-3-3----3-3-3-3-3-3-3-3-3--3--3-3----3--3-3-3-3-|


e|0---------------------------------------------------------|
B|--3-0-----------------------0-----------------------------|
G|------2---0--4p2p0--0---------2-0-----0h2-2h4p2-0h2-0--0--|
D|------------------2---0-----------0h2---------------------|
A|-------------------------2--------------------------------|
E|3-3-3-3--3-3-3----3-3-3-3-3-3-3-3-3--3--3-3----3--3-3-3-3-|

REFRAIN:

e|------------------------------------------------|
B|------------------------------------------------|
G|0-----------------------0-----------------0--0--|
D|--4-2-0-----0--2--0-------4-2-0-----0-2-4-------|
A|---------2-----------2-----------2--------------|
E|3-3-3-3-3-3-3-3-3-3-3-3-3-3-3-3-3-3-3-3-3-3-3-3-|

e|0-----------------------------------------------|
B|--3-0-------0-----------0-----------0-----------|
G|------2--0----2-0----0----2-0---------2-0-0--0--|
D|------------------2-----------2--0--------0-----|
A|------------------------------------------------|
E|3-3-3-3-3-3-3-3-3-3-3-3-3-3-3-3-3-3-3-3-3-3-3-3-|

I could not ask you where you came from,
I could not ask and neither could you.

Honey just put your sweet lips on my lips
We could just kiss like real people do.

OUTRO:

e|12-10-7-5--3--7p5--0-3-0----7-5-3-0---0-3-5-3--3--|
B|13-12-8-7--5-----8-1-5-1-3--8-7-5-1-3-1-5-7-3--3--|
G|0--0--0-0-0-0-0----0-0-0-4--0-0-0-0-4-0-0-0-4--4--|
D|------------------------5-5--------5-5------------|
A|--------------------------------------------------|
E|--------------------------------------------3-3-3-|

e|12-10-7-5--3--7p5--0-3-0----7-5-3-0---0-3-5-3--3--|
B|13-12-8-7--5-----8-1-5-1-3--8-7-5-1-3-1-5-7-3--3--|
G|0--0--0-0-0-0-0----0-0-0-4--0-0-0-0-4-0-0-0-4--4--|
D|------------------------5-5--------5-5------------|
A|--------------------------------------------------|
E|--------------------------------------------3-3-3-|

e|0----------------------------------------|
B|-3-0---------------0----------0----------|
G|-----2-0-4p2p0-0-----2-0----0---2-0-0----|
D|--------------2-0--------0h2-2------0----|
A|------------------2----------------------|
E|3-----------------------------------3----|


Imprimer la tab Imprimer la tab

Commentez la partition de Like real people do