Cours de guitare Cours de guitare | Nouveautés | Top 100 | Tous les accords | Blog
# a b c d e f g h i j k l m n o p q r s t u v w x y z demander une tab

Lily was here tab


Tablature guitare de la chanson « Lily was here » de Dave Stewart.

Première partie :

--------------|-----------------|
--0-----------|--0--------------|
----0--2------|----0--2---------|
---------2----|---------2/4~-542|
--------------|-----------------|
--------------|-----------------|


Seconde partie :

-----10~------|-----10~------------|
----8-----8~--|----8-----8^10~10/12|
--/9-----9----|--/9-----9----------|
--------------|--------------------|
--------------|--------------------|
--------------|--------------------|


Troisième partie :

----15-15-14--|----15-15-14-14-12-12--------|
--12--------12|--12-----------------15~15b17|
--------------|-----------------------------|
--------------|-----------------------------|
--------------|-----------------------------|
--------------|-----------------------------|


Imprimer la tab Imprimer la tab

Un commentaire »

  • angepasse :

    Merci c’est super en plus c’est rapide !!!
    ;)

Commentez la partition de Lily was here