Cours de guitareNouveautés | Top 100 | Tous les accords
# a b c d e f g h i j k l m n o p q r s t u v w x y z demander une tab

Django tab

Tablature guitare de la chanson “Django” (Django Unchained main theme) de Luis Bacalov.

Dm
django!
(0-1 sur le mi grave)    Gm
Django, have you always been alone?
Dm
Django!
                                F
Django, have you never loved again?

                Bb                        F
Love will live on, oh oh oh...
                  Bb                      A
Life must go on, oh oh oh...
              F                       C                           F                   A
For you cannot spend your life regreatting.


Dm
Django!
                      Gm
Django, you must face another day.
Dm
Django!
                                F
Django, now your love has gone away.

                 Bb                              F
Once you loved her, whoa-oh...
                 Bb                                     A
Now you've lost her, whoa-oh-oh-oh...
                 Dm                           Gm               Dm
But you've lost her for-ever, django.

Bb                                                            F
When there are clouds in the skies, and they are grey.
Bb                                                              F      Gm       A
You may be sad but remember that love will pass away.


Dm      (C)         Bb
Oh Django!
               C                     F
After the showers is the sun.
Gm      A     Dm     Gm      A
Will be shining...



[instrumental solo]
                  Bb                          F
Once you loved her, whoa-oh...
Bb                                                    A
Now you've lost her, whoa-oh-oh-oh...
                Dm                     Gm                    Dm
But you've lost her for-ever, django.

Bb                                                              F
When there are clouds in the skies, and they are grey.
Bb                                                             F     Gm           A
You may be sad but remember that love will pass away.
Dm  (C)    Bb
Oh django!
                 C                   F
After the showers is the sun.
Gm     A      Dm       Gm      A
Will be shining...
Dm       Gm     A
Django!
F   (1-3 sur le mi grave)     A
Oh oh oh django!
                 Dm        Gm        A
You must go on,
Dm
Oh oh oh django...

Dm(let ring)


Intro :
E    --3^5----0---3---0---3^5---3---0 ---5---3 ---5---3 ---0---3^5---0--3---0---3^5---3---0------------------------
B   --------------------------------------------------------------------------------------------------------------------------------
G ---------------------------------------------------------------------------------------------------------------------------------
D  -----------------------------------------------------------------------------------------------------------------2-0-2-0------
A ----------------------------------------------------------------------------------------------------------------------------------
E ---------------------------------------------------------------------------------------------------------------------------------


Solo :
E-------------------------------------------------------------------------------------------------------------------------------------
B------------------------------------------------------------------------------------------------------------------------------------
G-----------------------------------------------------------------------------10-12-10--------10--12--10---------------------
D -------------------------------------------------------------------9--12----------------12-------------------10--12---------
A 12----------12-----------------12---------------------10---------------------------------------------------------------------
E ----10--13-------13--10--13-------13--10--13-----------------------------------------------------------------------------


E-------------------------------------------------------------------------------------------------------------------------------------
B------------------------------------------------------------------------------------------------------------------------------------
G------------------------------------------------------------------------------------------------------------------------------------
D------------------------------------------------------10------12--10----------12--10------------------------------------------
A---------12------------------12------------------------------------------12-----------------------------------------------------
E 10--13------13--10--13--------13-10-13-----------------------------------------------------------------------------------

Imprimer la tab Imprimer la tab

Commentez la tablature