Cours de guitare Cours de guitare | Nouveautés | Top 100 | Tous les accords | Blog
# a b c d e f g h i j k l m n o p q r s t u v w x y z demander une tab

Magnolia tab


Tablature guitare de la chanson « Magnolia » de Eric Clapton.

INTRO
   Fmaj7            Cmaj7
e|----0---0---0---0----0---0---0---0---------------------------------------------|
B|----1---1---1---1----0---0---0---0---------------------------------------------|
G|--2-2-2-2-2-2-2-2--0-0-0-0-0-0-0-0---------------------------------------------|
D|--3-2-3-2-3-2-3-2--2-2-2-2-2-2-2-2---------------------------------------------|
A|--3---3---3---3----3---3---3---3-----------------------------------------------|
E|---------------------------------------------------------------------------=---|

COUPLETS
   Fmaj7            Cmaj7
e|----0---0---0---0----0---0---0---0---------------------------------------------|
B|----1---1---1---1----0---0---0---0---------------------------------------------|
G|--2-2-2-2-2-2-2-2--0-0-0-0-0-0-0-0---------------------------------------------|
D|--3-2-3-2-3-2-3-2--2-2-2-2-2-2-2-2---------------------------------------------|
A|--3---3---3---3----3---3---3---3-----------------------------------------------|
E|---------------------------------------------------------------------------=---|

PONT:
    Am           G
e|---0--0--0--0------------------------------------------------------------------|
B|---1--1--1--1---3--3--3--3-----------------------------------------------------|
G|---2--2--2--2---0--0--0--0-----------------------------------------------------|
D|---2--2--2--2---0--0--0--0-----------------------------------------------------|
A|--0--0--0--0-------------------------------------------------------------------|
E|---------------3--3--3--3------------------------------------------------------|

   Fmaj7            Cmaj7
e|----0---0---0---0----0---0---0---0---------------------------------------------|
B|----1---1---1---1----0---0---0---0---------------------------------------------|
G|--2-2-2-2-2-2-2-2--0-0-0-0-0-0-0-0---------------------------------------------|
D|--3-2-3-2-3-2-3-2--2-2-2-2-2-2-2-2---------------------------------------------|
A|--3---3---3---3----3---3---3---3-----------------------------------------------|
E|---------------------------------------------------------------------------=---|


Fmaj7    Cmaj7
Whip-poor-wills singing
Fmaj7    Cmaj7
Soft summer breeze
Fmaj7    Cmaj7
Makes me think of my baby
Fmaj7    Cmaj7
I left down in New Orleans
Fmaj7    Cmaj7
I left down in New orleans

Fmaj7    Cmaj7
Magnolia you sweet thing
Fmaj7    Cmaj7
You're driving me mad
Fmaj7    Cmaj7
Gotta get back to my baby
Fmaj7    Cmaj7
You're the best I've ever had
Fmaj7    Cmaj7
You're the best I've ever had

PONT:
Am       G
You whisper good morning
Am       G
So gently in my ear
Am       G
Im coming home to you babe
Fmaj7    Cmaj7
Ill soon be there
Fmaj7    Cmaj7
Ill soon be there

Solo
Fmaj7 Cmaj7
Am G
Am G
Fmaj7 Cmaj7
Fmaj7 Cmaj7

Fmaj7    Cmaj7
Magnolia you sweet thing
Fmaj7    Cmaj7
You're driving me mad
Fmaj7    Cmaj7
Gotta get back to you babe
Fmaj7    Cmaj7
You're the best I've ever had x 6


Imprimer la tab Imprimer la tab

Commentez la partition de Magnolia