Cours de guitare Cours de guitare | Nouveautés | Top 100 | Tous les accords | Blog
# a b c d e f g h i j k l m n o p q r s t u v w x y z demander une tab

Malaguena tab


Tablature guitare de la chanson classique « Malaguena ».

REFRAIN
e|-----0---0---0---0---0---0---0---0---0---0---0---0----------|
B|-----------0-----------0-------1---0------------------------|
G|-------1-----------1-------2-----------2---0----------------| x4
D|---2-----------2-------------------------------3---2--------|
A|------------------------------------------------------------|
E|------------------------------------------------------------|

PRE-COUPLET                           		       PUIS
e|--0--0--0--0--0--0--0--0--0--0-------------------|   |-0-|
B|--0--0--0--0--0--0--0--0--0--0-------------------|   |-0-|
G|--1--1--1--1--1--2--2--2--4--2-------------------|   |-1-|
D|--2--2--2--2--2--3--3--3--5--3-------------------|x2 |-2-| 
A|--2--2--2--2--2--3--3--3--5--3-------------------|   |-2-|
E|--0--0--0--0--0--0--0--0--0--0-------------------|   |-0-|

COUPLET 1
e|--0-1-3-1-0-----------------------------------|
B|-------------0-3-1-0-1--------0-1-0-3p1p0-----|
G|------------------------2-1-2-------------2-0-|
D|----------------------------------------------|
A|----------------------------------------------|
E|----------------------------------------------|

e|-------------------------------------------------------|
B|-------------------------------------------------------|
G|--3-2------0-------------------------------------------|
D|-------2-3---3-2----0--------------------0-------------|
A|------------------2---3-2-3--0---0-2-3-2---3-2-0-------|
E|-------------------------------4-----------------3-1-0-|

REFRAIN
e|-----0---0---0---0---0---0---0---0---0---0---0---0----------|
B|-----------0-----------0-------1---0------------------------|
G|-------1-----------1-------2-----------2---0----------------| x4
D|---2-----------2-------------------------------3---2--------|
A|------------------------------------------------------------|
E|------------------------------------------------------------|

COUPLET 2
e|----------------------------------------0-1-0-|
B|-0-1-333333-1-0-------0-----0-1-3333333-------|
G|----------------2-1-2---1-2-------------------|
D|----------------------------------------------|
A|----------------------------------------------|
E|----------------------------------------------|

e|----------0-1---------------------------------|
B|--3-1-0--------3-1-0--------------------------|
G|----------------------2-1-2-------------------|
D|----------------------------2~~~--------------|
A|----------------------------------------------|
E|----------------------------------------------|

REFRAIN
e|-----0---0---0---0---0---0---0---0---0---0---0---0----------|
B|-----------0-----------0-------1---0------------------------|
G|-------1-----------1-------2-----------2---0----------------| x4
D|---2-----------2-------------------------------3---2--------|
A|------------------------------------------------------------|
E|------------------------------------------------------------|

COUPLET 3
e|--0-----------0-----------1---5-0-7-5-4-1-0-----------|
B|----0-------0---0-------0---3----------------3-1-0----|
G|------1---1-------1---1-------------------------------|  x2
D|--------2-----------2---------------------------------|
A|------------------------------------------------------|
E|------------------------------------------------------|

e|-0------0-1-3-1-0-----------------------------------|
B|-0-----------------0-3-1-0-1--------0-1-0-3p1p0-----|
G|-1~~~-------------------------2-1-2-------------2-0-|
D|-2~~~-----------------------------------------------|
A|-2~~~-----------------------------------------------|
E|-0--------------------------------------------------|

e|-------------------------------------------------------|
B|-------------------------------------------------------|
G|--3-2------0-------------------------------------------|
D|-------2-3---3-2----0--------------------0-------------|
A|------------------2---3-2-3--0---0-2-3-2---3-2-0-------|
E|-------------------------------4-----------------3-1-0-|

FIN
|-5~-|
|-5~-|
|-5~-|
|----|
|----|
|----|


Imprimer la tab Imprimer la tab

3 commentaires »

  • mihai :

    Excelent ! Donnez plus de la musique espagnole, italienne et mexicaine !

  • yves :

    Super ,je la joue à l’électrique ,et à l’acoustique ,super tablature ,et complète –

    Continuez dans ce sens ,et on y trouve son bonheur

    Merci

  • Joule :

    Bonjour,

    Compliments pour ce travail . Cela m’aide beaucoup et me donne le goût de pratiquer davantage.

    J’aimerais avoir des chansons françaises, créoles et espagnoles
    (Guantanamera et Juliana de Cuco Valoy…)

Commentez la partition de Malaguena