Cours de guitare Nouveautés | Top 100 | Tous les accords
# a b c d e f g h i j k l m n o p q r s t u v w x y z demander une tab

Nothing else matters tab

Vidéo guitare et chant, tablature, accords, paroles de la chanson “Nothing else matters” de Metallica.

Tablature : accords, paroles

Intro

e---------0-----------0-----------0-----------0-----
B-------0---0-------0---0-------0---0-------0---0---
G-----0-------0---0-------0---0-------0---0---------
D---------------------------------------------------
A---------------------------------------------------
E---0-----------0-----------0-----------0-----------


e---7-7------7p0---------7-8-7h8p7p5-7p5p0------------------
B-------0--------0-------------------------5----5-7p5~-p0---
G---------0--------0---0---------------------5--------------
D-----------------------------------------------------------
A--------------------------------------------0--------------
E-----0--------------0--------------------------------------

                                                                      
e---------0-----------------3-----p0-----------5-----p0----------12-----------
B-------5----5--5--5----5-----5-------7----7-----7------------12----(12)------
G-----5------5--5--5--5---5-----5-----7--7---7-----7-------12-----------(12)--
D-----------------------------------------------------------------------------
A---0--------0--2--3------------------5---------------------------------------
E--------------------------------------------------------0--------------------


e---------0-----------0-----------0---------------- 
B-------0---0-------0---0-------0---0--------------
G-----0-------0---0-------0---0-------0------------
D--------------------------------------------------
A--------------------------------------------------
E---0-----------0-----------0-----------0(heavy)---



e--------(0)-----------------------(0)-----------------
B---------8-------7------5----------8-------7------5---
G-------9---------7------5--------9---------7------5---
D-----9---------7------5--------9---------7------5-----
A---7---------5------3--------7---------5------3-------
E---------------------------0--------------------------

                                                                    Em
e-----------7----5--------3--------3--------2--------------0--------0---
B-----------8------7--------5--------3--------4----------0---0------0---
G---------9----------7--------5--------4--------2-(p0)-0-------0----0---
D-------9-----------------------------------------------------------2---
A-----7--------------------------3--------2-------------------------2---
E---0----------5--------3----------------------------0-----------0--0---


Em                 D      C
So close no matter how far
Em                    D             C 
Couldn't be much more from the heart
Em               D         C
Forever trusting who we are
G   B            Em
And nothing else matters

Em             D            C
Never opened myself this way
Em                       D      C
Life is ours, we live it our way
Em                      D       C
All these words I don't just say
G   B            Em
And nothing else matters

Em               D          C
Trust I seek and find in you
Em               D            C
Every day for us something new
Em              D             C
Open mind for a different view
G   B            Em
And nothing else matters 

{chorus}
C A D                          C
     Never cared for what they do
  A D                          C
     Never cared for what they know
  A D      Em
     But I know

{repeat 1st verse}
{chorus}
{repeat 2nd and 3rd verse}

C A D                          C
     Never cared for what they say
  A D                          C
     Never cared for what they play
  A D                          C
     Never cared for what they do
  A D                          C
     Never cared for what they know
  A D      Em
     But I know

{repeter premier couplet}

Imprimer la tab Imprimer la tab

17 commentaires »

  • cdrick :

    it’s realy the best song i ever heard

  • Popo :

    Tp belle cette musique (L)

  • ologen :

    Salut,
    Je le demandais comment on peut jouer les 4,5 et 6emes notes de cette ligne pck j’y arrive pas , j’ai pas les doigts assez longs mais il doit bien y avoir une technique non?

    e———0—————–3—–p0———–5–
    B——-5—-5–5–5—-5—–5——-7—-7—–7
    G—–5——5–5–5–5—5—–5—–7–7—7—-
    D————————————————-
    A—0——–0–2–3——————5———–
    E————————————————-

    Merci…

  • ayoub :

    waw its the best song in the world

    ayoub from morocco

  • iron eddie :

    Salut,
    Je le demandais comment on peut jouer les 4,5 et 6emes notes de cette ligne pck j’y arrive pas , j’ai pas les doigts assez longs mais il doit bien y avoir une technique non?

    e———0—————–3—–p0———–5–
    B——-5—-5–5–5—-5—–5——-7—-7—–7
    G—–5——5–5–5–5—5—–5—–7–7—7—-
    D————————————————-
    A—0——–0–2–3——————5———–
    E————————————————-

    Merci…

    il faut jouer en picking (sans médiator)

  • yoam :

    ça serait pas un sim comme accord plutôt sur « nothing » ?

    Concernant l’intro, pour mon pti niveau par contre c’est balaise…

  • Tim :

    @iron eddie : Pour jouer ça, l’annulaire

  • Tim :

    @iron eddie : Pour jouer ça, l’annulaire sur la 3ème corde (en partant du bas), l’auriculaire sur la 4ème, et ton index sur la 5ème.
    Si tu n’arrives pas à mettre ton index sur cette case, essaie de bouger un peu ta main pour aller le plus loin possible. Et essaie aussi de ne pas laisser ton index plié.

    Si tu n’y arrives toujours pas, tu peux faire :
    e–0–0–0–
    B–1–1–1–
    G————
    D————
    A–0–2–3-
    E————
    Ca devrait avoir le même son, mais ça rend peut-être la suite plus compliquée…

  • mat51 :

    lu j’ai pas la suite si quelqun pourrait me dire sur quel site on la trouve svp merci d’av

  • Jean-Pierre Chappuis :

    Bonjour à tous.
    La meilleure interprétation vue à ce jour. MERCI, à celui qui pourra me procurer cette tab. Celle jouée par Pablo Mauser bien sur.

  • Orion :

    this song show you that how beautiful life is.

  • ballmaster :

    Pour ceux qui ont débuté la guitare avec le médiator, c’est sur que cette intro va requerir un peu de travail.
    Venant du classique, le travail est vite fait, le plus dur étant le placement des doigts :
    Pouce pour les cordes mi-la-re et index/majeur/annulaire pour les cordes sol/si/mi.

    J’ai le logiciel guitar pro, ce qui est une mine d’or pour avoir des tablatures avec le rythme, parce que réussir cette intro avec la tablature ci-dessus (qui est juste) , mais sans rythme, c’est périlleux.

    C’est une bonne chanson pour débuter, le solo est aussi très beau et pas compliqué. Comme quoi, pas la peine qu’il y ait 3000 notes/sec pour pour faire baver l’auditoire :)

  • jacob :

    sa fait trois ans que je jou cette toon et le truc est de jouer en piking classique ( pas de médiator)

  • fada :

    yoam, c’est un si7 pour le « nothing »

  • Sushi :

    salut tout le monde!
    comme ça fait longtemps que je n’ai plus jouer de la guitare, je voulais savoir c’est quoi déja le h et le p !
    Merci ! ^^

  • Tablature pas à pas de nothing else matters :

    h=hammer-on
    p=pull-off

    Pour ceux qui sont intéressés par cette tablature, j’ai réalisé une présentation pas à pas, mesure par mesure de la tablature de Nothing Else Matters. Accessible à cette adresse http://www.tablature-nothing-else-matters-metallica.fr , elle peut aider pas mal de débutants à jouer ce chez d’œuvre de Metallica.

  • ponpon :

    c’est assez dur mais c’est trop bien!!!!!

Commentez la tablature