Cours de guitare Cours de guitare | Nouveautés | Top 100 | Tous les accords | Blog
# a b c d e f g h i j k l m n o p q r s t u v w x y z demander une tab

Muscle museum tab


Tablature guitare de la chanson « Muscle museum » de Muse.

INTRO (x2):
E –------------------------------------------------------------------------
B –8-8-8-8-8-8-8-8-/-12-12-12-/-10-10-10-/-8-8-8-8-8-/-7-7-7-7-/-10-10-10-/
G –9-9-9-9-9-9-9-9-/-12-12-12-/-11-11-11-/-9-9-9-9-9-/-8-8-8-8-/-11-11-11-/
D -------------------------------------------------------------------------
A -------------------------------------------------------------------------
E -------------------------------------------------------------------------

E ---------------------------------------------------------------------12-|
B –8-8-8-/-7-7-7-7-7-7-/-8-8-8-8-/-12-12-12-12-12-12-12-12-/-13-13-13……13-|
G –9-9-9-/-8-8-8-8-8-8-/-9-9-9-9-/-12-12-12-13-13-13-13-13-/-12-12-12……12-|
D ------------------------------------------------------------------------|
A ------------------------------------------------------------------------|
E ------------------------------------------------------------------------|

COUPLET
E ---7-----7--|---7-------7---|---7-----7-----|-------12-12-12-12-12-|-
B -----8------|-----10--------|-----8-----8---|-------13-13-13-13-13-|-
G -9-----9----|-8------11-----|-9-----9-----9-|-13/14-14-14-14-14-14-|-  (x2)
D –-----------|---------------|---------------|----------------------|-
A ------------|---------------|---------------|----------------------|-
E ------------|---------------|---------------|----------------------|-

PRE-REFRAIN:
E –0-0-0---|-2-2-2---|--0-----|-1-----|-2-----|-3-----|-
B –0-0-0---|-4-4-4---|--1-----|-1-----|-1-----|-1-----|-
G –0-0-0---|-4-4-4---|--0- X8-|-0- X8-|-0- X8-|-0- X8-|-
D –2-2-2---|-4-4-4---|--2-----|-2-----|-2-----|-2-----|-
A –2-2-2---|-2-2-2---|--3-----|-3-----|-3-----|-3-----|-
E –0-0-0---|-2-2-2---|--------|-------|-------|-------|-

REFRAIN:
E –0------|-2------|-0------|-0------|
B –0------|-4------|-0------|-1------|
G –0- X16-|-4- X16-|-0- X16-|-0- X16-|   (x2)
D –2------|-4------|-2------|-2------|
A –2------|-2—-----|-2------|-3------|
E –0------|-2------|-0------|-2------|


« Yeah…. I’ll do it own by myself……… »

E ---------2-------|    |---------2-------|
B -----3-----3---3-|    |-----0-----0---0-|
G ---2---2-----2---| X2 |---2---2-----2---|  (x2)
D –0---------------|    |-1---------------|
A –----------------|    |-----------------|
E -----------------|    |-----------------|

E ---------0-------|---------0-------|---------0-------|---------0--------
B -----0-----0---0-|-----0-----0---0-|-----1-----1---1-|-----1-----1---1--
G ---0---0-----0---|---0---0-----0---|---0---0-----0---|---0---0-----0----
D –2---------------|-0---------------|-----------------|-2----------------
A -----------------|-----------------|-3---------------|------------------
E -----------------|-----------------|-----------------|------------------

E -----3------|-----2------|-
B -----3------|-----4------|-
G -----4- X a-|-----4------|-
D -----5------|-----4- X a-|-
A ------------|-----2------|-
E –0-0--------|-2-2-2------|-

FIN:
E –0-0-0-0--|--0-0-0-0-|      |-0-|
B –0-0-0-0--|--1-1-1-1-|      |-0-|
G –0-0-0-0--|--2-2-2-2-| (x2) |-0-|
D –2-2-2-2--|--2-2-2-2-|      |-2-|
A –2-2-2-2--|--0-0-0-0-|      |-2-|
E –0-0-0-0--|--0-0-0-0-|      |-0-|


Imprimer la tab Imprimer la tab

Commentez la partition de Muscle museum