Cours de guitareNouveautés | Top 100 | Tous les accords
# a b c d e f g h i j k l m n o p q r s t u v w x y z demander une tab

Tablature de la chanson « Counting stars » de OneRepublic.

CAPO 4

Intro: Am, C, G, F

   Am                  C                      G
e|------0---------0----------0-----------0----------------------------------|
B|------1---------1----------1-----------1----------3-----------3-----------|
G|---2----2----2----2-----0-----0-----0-----0-------0-----------0-----------|
D|-----------------------------------------------0-----0-----0-----0--------|
A|-0---------0---------3-----------3----------------------------------------|
E|--------------------------------------------3-----------3-----------------|
    F
e|--------------------------------------------------------------------------|
B|--------1------------1----------------------------------------------------|
G|--------2------------2----------------------------------------------------|
D|-----3-----3------3-----3--x2---------------------------------------------|
A|--3------------3----------------------------------------------------------|
E|--------------------------------------------------------------------------|


e|--3--0-----3--0-----3--0-----------------------------------|
B|--------3--------3--------3---5----------------------------|
G|-----------------------------------------------------------|
D|-----------------------------------------------------------|
A|-----------------------------------------------------------|
E|-----------------------------------------------------------|
		Am, C, G, F

Am                 C
Lately, I've been, I've been losing sleep
G                              F
Dreaming about the things that we could be
    Am               C
But baby, I've been, I've been playing hard,
G                   
Sitting, no more counting dollars
F                              F
We'll be counting stars, yeah we'll be counting stars

           Am
I see this life like a swinging vine
C
Swing my heart across the line
G
And my face is flashing signs
F
Seek it out and you shall find
Am
Oh, but I'm not that old
C
Young, but I'm not that bold
G
I don't think the world is sold
F
I'm just doing what we're told

Am C                G
I feel something so right
          F
Doing the wrong thing
Am C                G
I feel something so wrong
          F
Doing the right thing
F
I could lie, could lie, could lie
F
Everything that kills me makes me feel alive


Am                 C   
Lately, I've been, I've been losing sleep
G                              F
Dreaming about the things that we could be
Am                   C               
But baby, I've been, I've been playing hard,
G
Sitting, no more counting dollars
F
We'll be counting stars

Am                 C
Lately, I've been, I've been losing sleep
G                              F
Dreaming about the things that we could be
Am                   C
But baby, I've been, I've been playing hard,
G                       
Sitting, no more counting dollars
F
We'll be, we'll be counting stars


Repeat For the next verse

           Am 
I feel the love and I feel it burn
C
Down this river, every turn
G
Hope is a four-letter word
F
Make that money, watch it burn
Am
Oh, but I'm not that old
C
Young, but I'm not that bold
G
I don't think the world is sold
F
I'm just doing what we're told
Am  C                 G
  I feel something so wrong
          F
Doing the right thing
        F
I could lie, could lie, could lie
F
Everything that downs me makes me wanna fly

Am                 C
Lately, I've been, I've been losing sleep
G                              F
Dreaming about the things that we could be
    Am               C
But baby, I've been, I've been playing hard,
G         
Sitting, no more counting dollars
F
We'll be counting stars

Am                 C
Lately, I've been, I've been losing sleep
G                              F
Dreaming about the things that we could be
    Am               C
But baby, I've been, I've been playing hard,
G              
Sitting, no more counting dollars
F
We'll be, we'll be counting stars

Am, C, G, F

Am        Am
Take that money
Am       Am
Watch it burn
Am          Am
Sing in the river
    Am          Am
The lessons are learnt..

Take that money
Watch it burn
Sing in the river
The lessons are learnt

Take that money
Watch it burn
Sing in the river
The lessons are learnt

Take that money
Watch it burn
Sing in the river
The lessons are learnt

F               Dm
Everything that kills me makes feel alive

Am                 C
Lately, I've been, I've been losing sleep
G                              F
Dreaming about the things that we could be
    Am               C
But baby, I've been, I've been playing hard,
G           
Sitting, no more counting dollars
F
We'll be counting stars

Am                 C
Lately, I've been, I've been losing sleep
G                              F
Dreaming about the things that we could be
    Am               C
But baby, I've been, I've been playing hard,
G                        
Sitting, no more counting dollars
F
We'll be, we'll be, counting stars

Am
Take that money
Watch it burn
C
Sing in the river
The lessons are learnt
G
Take that money
Watch it burn
F
Sing in the river
The lessons are learnt
Am
Take that money
Watch it burn
C
Sing in the river
The lessons are learnt
G
Take that money
Watch it burn
F
Sing in the river
The lessons are learnt

Imprimer la tab Imprimer la tab

Commentez la tablature