Cours de guitare Cours de guitare | Nouveautés | Top 100 | Tous les accords | Blog
# a b c d e f g h i j k l m n o p q r s t u v w x y z demander une tab

Time tab


Tablature de la chanson « Time » des Pink Floyd.

Couplet                                                Riff A
e|--------------------------------------------------------5------------------|
B|--------------------------------------------------------5------------------|
G|-----------------------------------------6--------------6---7-6-----6------|
D|-4---------------------------------------7--------7---7-----7-7-----7------|
A|-4---------------------------------------7--------7---------7-7-----7------|
E|-2---------------------------------------5--------5---------5-5---5--------|
   Ticking away the moments that make up a dull day
                      Riff B        Riff C    Riff D         Riff E
e|----0-0---0-0------------------|--9-9-9-7-5-|------------------------------|
B|----0-0---0-0-------2----------|------------|--12-10-8-7---7-5-3-2---------|
G|----1-1---1-1-------4^6-4p2--2-|--9-9-9-7-6-|------------------------------|
D|-2------2------2-2---------4--4|------------|--12-11-9-7---7-5-4-2---------|
A|-2------2------2-2-------------|------------|------------------------------|
E|-0------0------4-4-------------|------------|------------------------------|
 
Couplet:
F#min                                   Amj     Riff A
Ticking away the moments that make up a dull day 
Emj                                        F#min RiffB
Fritter and waste the hours in an off hand way
F#min                                       Amj    Riff C
Kicking around on a piece of ground in your hometown
Emj                                              F#min
Waiting for someone or something to show you the way

Refrain:
Dmj7                           Amj7   
Tired of lying in the sunshine staying home to watch the rain. 
Dmj7                               Amj7
You are young and life is long and there is time to kill today. 
Dmj7                      C#min
And then one day you find ten years have got behind you. 
Bmin                        G F# E
No one told you when to run,      you missed the starting gun. 

Solo:
e|----------------------------------------------------5-5--------------------|
B|--------------------------------------------5-5-5h7-----7^8r7--------------|
G|------4^6r4--2-4^6-4^6r4p2-4^6-4---------4/6-------------------------------|
D|--4~-----------------------------4^6---------------------------------------|
A|---------------------------------------------------------------------------|
E|---------------------------------------------------------------------------|

e|--------------------------9---9^10r9---------------------------------------|
B|-------------------------------------10^12---10-9--------------------------|
G|---4^6--4^6r4-2-4^6---7/9-------------------------9^10-9/11----------------|
D|-4-------------------------------------------------------------------------|
A|---------------------------------------------------------------------------|
E|---------------------------------------------------------------------------|


e|-------------------17----------------------------------------------------------------|
B|----------14-17^19---^19--17-17----------------------------------17-17---------------|
G|-------14-----------------------16^18--16^19-19-19r18r16-16-16--------16~-14~--------|
D|-14/16------------------------------------------------------------------------16~----|
A|-------------------------------------------------------------------------------------|
E|-------------------------------------------------------------------------------------|

e|-----17^19-17---------------------------------------------19^21-21-19--19--|
B|--------------17^19~--17-17----------------------------17------------------|
G|-14-------------------------16^18r16-14-16-14-16^18~-----------------------|
D|---------------------------------------------------------------------------|
A|---------------------------------------------------------------------------|
E|---------------------------------------------------------------------------|

e|--17-14-----------14-------------------------------------------------------|
B|---------17-14--17---17\14-17\14-------------------------------------------|
G|-------------------------------------------------14/16\14---13/14\13\9~----|
D|-----------------------------------------7/12-12---------------------------|
A|--------------------------------------/9-----------------------------------|
E|---------------------------------------------------------------------------|

e|---------------------------------------------------------------------------|
B|---------------------------------------------------------------------------|
G|-11/13-13^14--11\9/11--9\6-9\6-6^7-6-4-2-4~--2-------4---------------------|
D|-------------------------------------------------4/6---6p4p2~--------------|
A|---------------------------------------------------------------------------|
E|---------------------------------------------------------------------------|

Couplet 2
F#min                                                    Amj  Riff E  
So you run and you run to catch up with the sun but it's sinking 
Emj                                 F#min Riff B
Racing around to come up behind you again. 
F#min                                            Amj  Riff D
The sun is the same in a relative way but you're older, 
Emj                                     F#min
Shorter of breath and one day closer to death. 

Dmj7                          Amj7
Every year is getting shorter never seem to find the time. 
Dm7                                 Amj7
Plans that either come to naught or half a page of scribbled lines 
Dm7                       C#min
Hanging on in quiet desperation is the English way 
Bmin               
The time is gone, the song is over, 
Bmin7                 Fmj
Thought I'd something more to say. 

Intro & couplet
 Em                  Amj   Asus2 A7
e|----0-----------0----------------------------------------------------------|
B|-----0----------0---2-2---3-2--2-2-----------------------------------------|
G|------0---------0---2-2---2-2--0-0-----------------------------------------|
D|-------2------------2-2---2-2--2-2-----------------------------------------|
A|--------2-----------0-0-0--------------------------------------------------|
E|-0-------0----0------------------------------------------------------------|

Refrain:
Cmj7
Far away across the field 
Bmin7
The tolling of the iron bell 
Fmj7
Calls the faithful to their knees 
G                  D7#9   D7b9  Bm
To hear the softly spoken magic spells.


Imprimer la tab Imprimer la tab

Commentez la partition de Time