Cours de guitare Cours de guitare | Nouveautés | Top 100 | Tous les accords | Blog
# a b c d e f g h i j k l m n o p q r s t u v w x y z demander une tab

Wish you were here tab


 Vidéo guitare et chant, tablature gratuite, accords, paroles de la chanson «Wish you were here» de Pink Floyd.

Tablature, accords, paroles

Intro:
  	
	    	     ^V^                 ^V^
e---------------------3-------------------3---|
B---------------------3-------------------3---|
G---------------------0-------0-----------0---|
D-------------0--2----0----2-----2--------0---|   * 2            
A------0h2------------2-------------------2---|     
E---3-----------------x-------------------3---|      

              
                     ^V^                              ^V^
e---------------------3--------------------------------3---|
B---------------------3--------------------------------3---|
G---------------------0--------------------------------2---|
D-------------0--2----0------2-----0-------------------2---|   * 2
A------0h2------------2------------------2-------0-----0---|
E---3-----------------x--------------------------------0---|




e---3---|    
B---3---|
G---0---|
D---0---|     
A---2---|
E---3---|




C                           D
So, so you think you can tell 
              AM
Heaven from Hell
                   G
Blue Skies from pain
                       D
Can you tell a green field
                    C
From a cold steel rail 
                AM
A smile from a veil
                       G
So you think you can tell
                       C
Did they get you to trade
                    D
Your heroes for ghosts
                  AM
Hot Ashes for trees
                      G
Hot air for a cool breeze
                    D
Cold comfort for change
              C
Did you exchange?
                      AM
A walk on part in the war
                      G
For a lead role in a cage



Solo 


C                              D 
How I wish, how I wish you were here
            Am                                G
We're just two lost souls swimming in a fish bowl
             D
Year after year.
                C
Running over the same old ground.
                                  AM
What have we found the same old fears
                G
Wish you were here...


Imprimer la tab Imprimer la tab

6 commentaires »

  • samsiprat :

    Super beau morceau, un des premiers que j’ai appris.
    Il manque juste le solo du début :)

    Merci

  • Bloody fingers :

    La tablature de l’intro n’est pas complète.

  • fred :

    superbe…

  • Gerald :

    Super,merci.

  • Basile :

    Quelqu’un peut m’aider pour le rythme du couplet j’arrive pas à le trouver :'(

  • martin :

    pas complete

Commentez la partition de Wish you were here