Cours de guitare Cours de guitare | Nouveautés | Top 100 | Tous les accords | Blog
# a b c d e f g h i j k l m n o p q r s t u v w x y z demander une tab

Don't stop me now tab


Tablature guitare de la chanson “Don’t stop me now” de Queen.

Accords utilisés :

    F   Am  Dm  Gm  C   F7  Bb  D7  C7  Gm7 Eb
e---1---5---5---3---3---1---1---5---3---3---6---|
B---1---5---6---3---5---1---3---7---5---3---8---|
G---2---5---7---3---5---2---3---5---3---3---8---|
D---3---7---7---5---5---1---3---7---5---3---8---|
A---3---7---5---5---3---3---1---5---3---5---6---|
E---1---5-------3-------1---------------3-------|

Intro

   F                     Am        Dm               Gm   C
Tonight I’m gonna have myself real good time, I feel alive
        F       F7            Bb            Gm                D7
And the world turning inside out yeah, a floating around in ecstasy
    Gm   Dm   C  Gm7   Gm   Dm   C
So don’t stop me now, don’t stop me
           Gm			 C7
Cause I’m having a good time, having a good time


COUPLET 1

      F                                 Am           Dm
I’m a shooting star leaping through the sky, like a tiger
            Gm         C
Defying the law of gravity
      F                  Am               Dm
I’m a racing car passing by, like lady Godiva
          Gm     C                     F
I’m gonna go go go there’s no stopping me

F7                      Bb          Gm
I’m burning through the sky yeah, two hundred degrees
                    D7              Gm
That’s why they call me Mr. Fahrenheit
     D7                       Gm
I’m travelling at the speed of light
                  			C 
I wanna make a supersonic man out of you


REFRAIN

F     Gm  Am Dm                      Gm             C
Don’t stop me now, I’m having such a good time I’m having a ball
F     Gm  Am Dm                        Gm             D7
Don’t stop me now, if you wanna have a good time just give me a call
Gm    Dm   C   Gm7 
Don’t stop me, cause I’m having a good time
Gm    Dm   C   Gm7
Don’t stop me, yes I’m having a good time
C7                     Eb
I don’t wanna stop at all

COUPLET 2

      F                         Am           Dm
I’m a rocket ship on my way to Mars, on a collision course
      Gm              C
I’m a satellite, I’m out of control
       F         	      Am             Dm
I’m a sex machine ready to reload, like an atom bomb
         Gm    C     F
About to oh oh oh explode

      F7                 Bb            Gm
I’m burning through the sky yeah, two hundred degrees
                 D7              Gm
That’s why they call me Mr. Fahrenheit
     D7                         Gm
I’m travelling at the speed of light
                  		     C 
I wanna make a supersonic woman of you

PONT:
Don’t stop me, don’t stop me, don’t stop me (hey, hey, hey)
Don’t stop me, don’t stop me (oo, oo, oo)
Don’t stop me, don’t stop me (have a good time, good time)
Don’t stop me, don’t stop me (woooaaaawwwww)

Solo
e---------------|---------------|---------------|----------------|
B---------------|---------------|------------11-|--10------------|
G-12b-12b-12-10-|-12b-12b-12-10-|-12-10-9-10----|-----12-10-12b--|
D---------------|---------------|---------------|----------------|
A---------------|---------------|---------------|----------------|
E---------------|---------------|---------------|----------------|

e---------------|---------------|---------------|----------------|
B---------------|---------------|-11b-11b-11-10-|-11b-11b-11-10--|
G--12-14-12-14--|--12-14-12-10--|---------------|----------------|
D---------------|---------------|---------------|----------------|
A---------------|---------------|---------------|----------------|
E---------------|---------------|---------------|----------------|

e---------------|---------------|---------------|----------------|
B--11-10----10--|--11-10--------|---------------|----------------|
G--------12-----|--------12-10--|-12b-12-14-12--|-14-12-14-12-10-|
D---------------|---------------|---------------|----------------|
A---------------|---------------|---------------|----------------|
E---------------|---------------|---------------|----------------|

      F7              Bb            Gm
I’m burning thru the sky yeah, two hundred degrees
                 D7              Gm
That’s why they call me Mr. Fahrenheit
     D7                         Gm
I’m travelling at the speed of light
                  		     C 
I wanna make a supersonic woman of you

REFRAIN :

F     Gm  Am Dm                      Gm             C
Don’t stop me now, I’m having such a good time I’m having a ball
F     Gm  Am Dm                        Gm             D7
Don’t stop me now, if you wanna have a good time Just give me a call
Gm    Dm   C   Gm7 
Don’t stop me, cause I’m having a good time
Gm    Dm   C   Gm7
Don’t stop me, yes I’m having a good time
C7                     Eb
I don’t wanna stop at all


Imprimer la tab Imprimer la tab

Commentez la partition de Don't stop me now