Cours de guitare Cours de guitare | Nouveautés | Top 100 | Tous les accords | Blog
# a b c d e f g h i j k l m n o p q r s t u v w x y z demander une tab

Renegades tab


Accords guitare de la chanson « Renegades » de X Ambassadors.

INTRO:

  Bm           D              A              G
e|------------|--------------|--------------|--------------|
B|----3-------|--------------|--------------|----3---------|
G|----------4-|----7---------|---6----------|------------4-|
D|------------|------------7-|------------7-|--------------|
A|-2------2---|-5--------5---|--------------|--------------|
E|------------|--------------|-5--------5---|-3--------3---|

  Bm           D              A              G
e|------------|--------------|--------------|--------------|
B|----3-------|--------------|--------------|----3---------|
G|----------4-|----7---------|---6----------|------------4-|
D|------------|------------7-|------------7-|--------------|
A|-2------2---|-5--------5---|--------------|--------------|
E|------------|--------------|-5--------5---|-3--------3---|


Bm        D          A G
 Run away-ay with me
Bm              D      A G
 Lost souls and reverie
Bm               D             A G
 Running wild and running free
Bm         D           A G 
 Two kids, you and me

REFRAIN:
           Bm           D
 And I say Hey, hey hey hey
        A              G
 Living like we're renegades
         Bm           D
 Hey hey hey, Hey hey hey
        A              G
 Living like we're renegades 
     Bm D A G   Bm D A G
 Renegades, renegades


Bm             D         A G
 Long live the pioneers
Bm          D         A G
 Rebels and mutineers
Bm            D            A G
 Go forth and have no fear
Bm              D           A G
 Come close the end is near

REFRAIN:
           Bm           D
 And I say Hey, hey hey hey
        A              G
 Living like we're renegades
         Bm           D
 Hey hey hey, Hey hey hey
        A              G
 Living like we're renegades 
     Bm D A G   Bm D A G
 Renegades, renegades


Interlude:

  Bm           D              A              G
e|------------|--------------|--------------|--------------|
B|----3-------|--------------|--------------|----3---------|
G|----------4-|----7---------|---6----------|------------4-|
D|------------|------------7-|------------7-|--------------|
A|-2------2---|-5--------5---|--------------|--------------|
E|------------|--------------|-5--------5---|-3--------3---|

  Bm           D              A              G
e|------------|--------------|--------------|--------------|
B|----3-------|--------------|--------------|----3---------|
G|----------4-|----7---------|---6----------|------------4-|
D|------------|------------7-|------------7-|--------------|
A|-2------2---|-5--------5---|--------------|--------------|
E|------------|--------------|-5--------5---|-3--------3---|


Bm            D
 All hail the underdogs
A             G
 All hail the new kids
Bm            D
 All hail the outlaws
A                G
 Spielberg's and Kubrick's
Bm                D
 It's our time to make a move
A                 G
 It's our time to make amends
Bm                D
 It's our time to break the rules
A            G
 Let's begin...

REFRAIN:
           Bm           D
 And I say Hey, hey hey hey
        A              G
 Living like we're renegades
         Bm           D
 Hey hey hey, Hey hey hey
        A              G
 Living like we're renegades 
     Bm D A G   Bm D A G
 Renegades, renegades


Imprimer la tab Imprimer la tab

Un commentaire »

  • Clara :

    Bonjour, il semblerait qu’il y ait des fautes dans les paroles. Voici le lien de la vidéo officiel des paroles, ce serait bien de s’en inspirer! Merci pour les accords en tout cas.

Commentez la partition de Renegades