Cours de guitare Cours de guitare | Nouveautés | Top 100 | Tous les accords | Blog
# a b c d e f g h i j k l m n o p q r s t u v w x y z demander une tab

Ride on tab


Accords guitare de la chanson « Ride on » de ACDC.

INTRO:
C   F   (x4)

C                   F           C        F
It's another lonely evening 
 F                 Bb           F       Bb 
And another lonely town
 G                        C 
But I ain't too young to worry
Bb                      F
And I ain't too old to cry
C                       F       C        F
When a woman gets me down

C                 F        C        F
Got another empty bottle
 F                Bb           F       Bb
And another empty bed
 G                  C
Ain't too young to admit it
        Bb              F
And I'm not too old to lie
         C             F          C        F
I'm just another empty head


That's why I'm lonely,  I'm so lonely,     But I know what I'm gonna do...

|--1-1-1-----|          |--2-2-2-----|     |--3--|
|--1-1-1-----|          |--2-2-2-----|     |--3--|
|--2-2-2-----|          |--3-3-3-----|     |--4--|
|--3-3-3-3~~-|          |--4-4-4-4~~-|     |--5--|
|--3-3-3-----|          |--4-4-4-----|     |--5--|
|--1-1-1-----| x2       |--2-2-2-----| x2  |--3--| x 13

          F    C  
I'm gonna ride on 

 F    G
Ride on

 F    C
Ride on 
standing on the edge of the road

 Bb    F
Ride on
thumb in the air

 F    C
Ride on
one of these days I'm gonna

 C    G
Ride on
change my evil ways

 F x 24
Till then I'll just keep.. 

riding on..

C   F  (x4)

|----------------------15-----------------------------------------------------|
|-16b18-r16-13---16r15b17---15b17-13-15p13-13---------------------------------|
|-----------------------------------------------12r10--8~~~~~-----------------|
|-----------------------------------------------------------------------------|
|-----------------------------------------------------------------------------|
|-----------------------------------------------------------------------------|

       C             F        C        F
Well I Broke another promise
       F            Bb        F       Bb
And I broke another heart
       G                  C
But I ain't too young to realize
        Bb               F
That I ain't too old to try
       C               F          C        F
Try to get back to the start

         C                  F        C        F
And it's another red light nightmare
            F                Bb        F       Bb
Ooooooh On Another red light street
       G                C
And I ain't too old to hurry
         Bb               F
Cause I ain't too old to die
      C       F          C        F
But I sure am hard to beat

But I'm lonely,         Lord I'm lonely,   What am I gonna do?...

|--1-1-1-----|          |--2-2-2-----|     |--3--|
|--1-1-1-----|          |--2-2-2-----|     |--3--|
|--2-2-2-----|          |--3-3-3-----|     |--4--|
|--3-3-3-3~~-|          |--4-4-4-4~~-|     |--5--|
|--3-3-3-----|          |--4-4-4-----|     |--5--|
|--1-1-1-----| x2       |--2-2-2-----| x2  |--3--| x 13

          F    C   
I'm gonna ride on, 

  F    G
Ride on
got myself a one-way ticket

 F    C
Ride on

 Bb    F
Ride on
going the wrong way

 F    C
Ride on
gonna change my evil ways

  C    G
Ride on
one of these days,

  F
Ride on

One of these days

C   F...

|----------------------------------|
|-16b18-r16-13-13~\------13-13b17--|
|---------------------/14----------|
|----------------------------------|
|----------------------------------|
|----------------------------------|
          .               .

|-------8--------------------------------------------------|
|---------11p8----8----------------------------------------|
|-10b12--------10---10b12r10p8---------10b12r10-8~~~~------|
|------------------------------10--------------------------|
|----------------------------------------------------------|
|----------------------------------------------------------|
                  .             ~               
          ????????????????????              

|-----------------------------------------------------------------------------|
|------8----------8-11p8-------8-11p8------8-11b13----------------------------|
|--10b12-----10b12-------10b12--------10b12-----------------------------------|
|-----------------------------------------------------------------------------|
|-----------------------------------------------------------------------------|
|-----------------------------------------------------------------------------|

|--8-----------------------------------------8-10-11~~~~----------------------|
|----11p8----------------------------8-10-11----------------------------------|
|--------11p10p8----8~~~~-------8-10------------------------------------------|
|----------------10--------8/10-----------------------------------------------|
|-----------------------------------------------------------------------------|
|-----------------------------------------------------------------------------|
                  .                             .
             

|--10b12r10-8-h11p8-----8--8-8---15r17--17r15--13-12----12--------------------|
|-------------------/10------------------------------13---13~~~~\-------------|
|-----------------------------------------------------------------------------|
|-----------------------------------------------------------------------------|
|-----------------------------------------------------------------------------|
|-----------------------------------------------------------------------------|
                        .  .  
                                        ????????????????????           

|-------------------------------------------------15-------------18-18===----|
|-15b17--15b17-%-%-%-%--17r15-13-13---15-13-15/17----17----18b20----18b20-----|
|-----------------------------------------------------------------------------|
|-----------------------------------------------------------------------------|
|-----------------------------------------------------------------------------|
|-----------------------------------------------------------------------------|
            .                  .  ~                  
                                      ?????????????????

|--17-18-15---18p17p15--------------------------------------------------------|
|----------------------18p17p15-18p17p15--------------------------------------|
|-----------------------------------------17p15-15-17-15-17~~~~~\-------------|
|-----------------------------------------------------------------------------|
|-----------------------------------------------------------------------------|
|-----------------------------------------------------------------------------|
   .   .  .
              ????????????????????????????????????????????

|----------------------------------------------------------------|
|----------------------------8-11p8------------------------------|
|--8-------8-------8-?--------------10p8-10~~~~------------------|
|----10-10-----8h10 ---%-%---------------------------------------|
|----------------------------------------------------------------|
|----------------------------------------------------------------|
   ^       @ 


|------8------------------------------------------------------------|
|-----8--11p8-------------------------------------------------------|
|---10--------10p8-8-10p8----8--------------------------------------|
|-------------------------10---10-10~~~~----------------------------|
|-------------------------------------------------------------------|
|-------------------------------------------------------------------|
                           . ^  .

|-------------------8-10-11r10-8~~~-|
|-----------8-10-11-----------------|
|------8-10-------------------------|
|--/10------------------------------|
|-----------------------------------|
|-----------------------------------|
                       .

|------13-----------13-----------------------------|
|---------16b18~~~-----16p13-----------------------|
|--/14-----------------------16p15p13--------------|
|-------------------------------------15~~~\-------|
|--------------------------------------------------|
|--------------------------------------------------|

|------------------------------------------------------------|
|-----15-17b19---17-15-17b19-17b19--17b19-17b19~~~\----------|
|--17--------------------------------------------------------|
|------------------------------------------------------------|
|------------------------------------------------------------|
|------------------------------------------------------------|
                                  .      .  
                 ?????????????????
|-----------------------------------------------------------------------------|
|--18b20--18b20-18b20--18p17p15-%%%%--18b20~~~~~~~~\--------------------------|
|-----------------------------------------------------------------------------|
|-----------------------------------------------------------------------------|
|-----------------------------------------------------------------------------|
|-----------------------------------------------------------------------------|
       

 F   C  
Ride on

  F    G
Ride on
I'm gonna ride on

 F    C
Ride on
Mmmmmm looking for a truck

 Bb    F
Ride on

Mmmm mmm hmmmmmm
 F    C
Ride on 

  C    G
Ride On
keep on riding

 F x 24
Riding on, and on, and on, and on, and on, and on, and on, and on, and onnnnn. 

 F    C
Ride on

 F   G
OOh Yeah, 
Gonna have myself a good time

F   C
Ohhh yeah

Bb     F
Yeah, Yeah, Yeah

 F    C
Ride on
One of these days 

  C    G
Ride on

F x 24
One of these days...

|--8-------------8----------------------------------------------------------|
|----8--11b13------11p8-----------------------------------------------------|
|------------------------(insert lots---------------------------------------|
|-------------------------------------of -----------------------------------|
|----------------------------------------notes here)------------------------|
|-------------------------------------------------------11--8~~~~~~\--------|
                                                        ^


Imprimer la tab Imprimer la tab

Commentez la partition de Ride on