Cours de guitare Cours de guitare | Nouveautés | Top 100 | Tous les accords | Blog
# a b c d e f g h i j k l m n o p q r s t u v w x y z demander une tab

Road trippin tab


-PARTIE A:

|------3----------|--3---------3----|-----------------|------------------|
|------------0----|--------0--------|------5----------|--4---------4-----|
|-----------------|-----------------|------------0----|--------0---------|
|--2-------2---2--|------2---2---2--|-----------------|------------------|
|-----------------|-----------------|--3---3---3---3--|--2---2---2---2---|
|------0----------|--0--------------|-----------------|------------------|


-PARTIE B:

|--0---------0----|-----------------|-----------------|-----------------|
|--------1--------|--3---------3----|--5---------5----|--12----12-------|
|-----------------|--------0--------|--------0--------|----12------12---|
|------2-------2--|------0-------0--|------5-------5--|------12------12-|
|--0-------0------|--2-------2------|--3-------3------|--10------10-----|
|-----------------|-----------------|-----------------|-----------------|


-PONT:

|-----------------|-----------------|-----------------|-----------------|
|--8---------8----|--2---------2----|--5---------5----|--7---------7----|
|--------7--------|--------0--------|--------5--------|--------5--------|
|------9----------|------2----------|------5----------|------7----------|
|--7-------7------|--0-------0------|--3-------3------|--5-------5------|
|-----------------|-----------------|-----------------|-----------------|

|-----------------|-----------------|-----------------|
|--8---------8----|--2---------2----|--5---------5----|
|--------7--------|--------0--------|--------5--------|  
|------9----------|------2----------|------5----------|
|--7-------7------|--0-------0------|--3-------3------|
|-----------------|-----------------|-----------------|


-OUTRO:

|-----3-----------3----------3------------3---|
|-----------0-----------0----------0----------|
|---------------------------------------------|   
|---2-----2-----2-----2-----2-----2-----2-----|
|---------------------------------------------|
|---------------------------------------------|


                                                     ___
Road trippin' with my two favourite allies             |
Fully loaded we ghot snacks and supplies
It's time to leave this town
It's time to stea away
Let's go get lost
Anywhere in the U.S.A.

Let's go get lost
Let's go get lost                                    PARTIE A

Blue you sit so pretty
West of the one
Sparkle light with yellow icing
Just a mirror for the sun
Just a mirror for the sun
Just a mirror for the
                                                      _|_
                                                       |

Su-u-u-n
These smiling eyes are just a mirror for             PARTIE B

                                                      _|_
                                                       |
So much has come Before those battles lost and won
This life is shiningmore forever in the sun
Now let us check our heads
And let us check the surf
Saying high and dry's                                PARTIE A
More trouble than it's worth
In the sun
Just a mirror for the sun
Just a mirror for the
                                                      _|_
                                                       |

Su-u-u-n
These smiling eyes are just a mirror for             PARTIE B

                                                      _|_
                                                       |

                                                     PONT

                                                      _|_
                                                       |
In Big Sur we take some time to linger on
We three hunky dories got our snakefinger on
Now let us drink the stars
It's time to steal away
Let's go get lost
Right here in the U.S.A.

Let's go get lost                                    PARTIE A
Let's go get lost

Blue you sit so pretty
West of the one
Sparkle light and yellow icing
Just a mirror for the sun
Just a mirror for the sun
Just a mirror for the                                 _|_
                                                       |

Su-u-u-n
These smiling eyes are just a mirror for             PARTIE B
These smiling eyes are just a mirror for
Your smiling eyes are just a mirror for
                                                      _|_
                                                       |

                                                     OUTRO

                                                      _|_


Imprimer la tab Imprimer la tab

Commentez la partition de Road trippin