Cours de guitare Cours de guitare | Nouveautés | Top 100 | Tous les accords | Blog
# a b c d e f g h i j k l m n o p q r s t u v w x y z demander une tab

Rock bottom tab


Tablature guitare de la chanson « Rock bottom » de Kiss.

Tune Down 1/2 step

Partie 1:

E|-5---7---8---7---5---7---8---7---5---7---8---7---5---7---8---7---|
B|--6---6---6---6---6---6---6---6---5---5---5---5---5---5---5---5--|
G|---7---7---7---7---7---7---7---7---5---5---5---5---5---5---5---5-|
D|-----------------------------------------------------------------|
A|-----------------------------------------------------------------|
E|-----------------------------------------------------------------|

                                                       (*)
E|-5---7---8---7---7---8---10--8---5---7---8---7---5---|-7---8---7---|
B|--6---6---6---6---8---8----8--8---5---5---5---5---5--|--5---5---5--|
G|---5---5---5---5---7---7----7--7---5---5---5---5---5-|---5---5---5-|
D|-----------------------------------------------------|-------------|
A|-----------------------------------------------------|-------------|
E|-----------------------------------------------------|-------------|

Partie 2:

E|-12---13---15---13---7---8---10---8---5---7---8---7---5---7---8---7---|
B|--13---13---13---13---8---8----8---8---5---5---5---5---5---5---5---5--|
G|---12---12---12---12---7---7----7---7---5---5---5---5---5---5---5---5-|
D|----------------------------------------------------------------------|
A|----------------------------------------------------------------------|
E|----------------------------------------------------------------------|

E|-12---13---15---13---7---8---10---8---5---6---8---6---7---8---10---8---|
B|--13---13---13---13---8---8----8---8---6---6---6---6---8---8----8---8--|
G|---12---12---12---12---7---7----7---7---5---5---5---5---7---7----7---7-|
D|-----------------------------------------------------------------------|
A|-----------------------------------------------------------------------|
E|-----------------------------------------------------------------------|

E|-5---7---8---7---5---7---8---7---|
B|--5---5---5---5---5---5---5---5--|
G|---5---5---5---5---5---5---5---5-|
D|---------------------------------|
A|---------------------------------|
E|---------------------------------|

Partie 3:

E|-5-|
B|-5-|
G|-5-|
D|-7-|
A|-7-|
E|-5-|


Imprimer la tab Imprimer la tab

Commentez la partition de Rock bottom