Cours de guitare Cours de guitare | Nouveautés | Top 100 | Tous les accords | Blog
# a b c d e f g h i j k l m n o p q r s t u v w x y z demander une tab

Sailing tab


Tablature de la chanson « Sailing » de Rod Stewart.

CAPO 4


|--0-------0-------0-------0---------3-------3-------3-------3---||
|----6-------6-------6-------6-----0---0---0---0---0---0---0---0-||
|5-----5-5-----5-5-----5-5-----5-0-------0---------------0-------||
|------------------------------------------------0---------------||
|----------------------------------------------------------------||
|----------------------------------------------------------------||

|--0-------0-------0-------0---------3-------3-------3-----------||
|----6-------6-------6-------6-----0---0---0---0---0---0---0---0-||
|5-----5-5-----5-5-----5-5-----5-0-------0-----------------------||
|------------------------------------------------0-------0---2---||
|----------------------------------------------------------------||
|----------------------------------------------------------------||
                                                         I   am

       G            Em           C               G
I am sailing, I am sailing home again 'cross the sea.
       A           Em             Am              G      D
I am sailing stormy waters, to be near you, to be free.


       G           Em           C               G
I am flying, I am flying like a bird 'cross the sky.
       A            Em                 Am              G      D
I am flying passing high clouds, to be near you, to be free.


       G                 Em                C              G
Can you hear me, can you hear me, thru the dark night far away?
       A           Em            Am                G      D
I am dying, forever trying to be with you; who can say?


       G                Em                 C               G
Can you hear me, can you hear me, thru the dark night far away?
       A            Em           Am                G      D
I am dying, forever trying to be with you; who can say?


PONT:
C     Em    D-Db-D  D-Db-D  Em
C     G     D-Db-D  Dsus4  D6  C


       G               Em           C                G
We are sailing, we are sailing home again 'cross the sea.
       A              Em            Am              G
We are sailing stormy waters, to be near you, to be free.
D             Am             G
Oh Lord, to be near you, to be free.
D             Am             G
Oh Lord, to be near you, to be free.


|--0-------0-------0-------0---------3-------3-------3-------3---||
|----6-------6-------6-------6-----0---0---0---0---0---0---0---0-||
|5-----5-5-----5-5-----5-5-----5-0-------0---------------0-------||
|------------------------------------------------0---------------||
|----------------------------------------------------------------||
|----------------------------------------------------------------||

|--0-------0-------0-------0---------3-------3-------3-------3---||
|----6-------6-------6-------6-----0---0---0---0---0---0---0---0-||
|5-----5-5-----5-5-----5-5-----5-0-------0---------------0-------||
|------------------------------------------------0---------------||
|----------------------------------------------------------------||
|----------------------------------------------------------------||


Imprimer la tab Imprimer la tab

Un commentaire »

  • William :

    Très bonne partition , super pour tous les débutants et plus !!!!!!!!!!!!!!!
    Merci!!!!!!!!!!

Commentez la partition de Sailing