Cours de guitare Cours de guitare | Nouveautés | Top 100 | Tous les accords | Blog
# a b c d e f g h i j k l m n o p q r s t u v w x y z demander une tab

Sang pour sang tab


Accords guitare de la chanson « Sang pour sang » de Johnny Hallyday.

CAPO 1

INTRO : 
    Bm		Bm/A		G
E||--------------------------|------------------------| 
B||--------3-----------3-----|--------3---------------| 
G||-----------4-----------4--|-----0-----0------------| 
D||-----4-----------4--------|------------------------| 
A||--2-----------0-----------|---------------------0--| 
E||--------------------------|--3---------------------| 

   --------------------------|------------------------| 
   --------3-----------3-----|--------3---------------| 
   -----------4-----------4--|-----0-----0------------| 
   -----4-----------4--------|------------------------| 
   --2-----------0-----------|---------------------0--| 
   --------------------------|--3---------------------| 

Bm	     Bm/A		G
J ai pas toujours trouvé les mots
			   Em
Pour bercer tes rêves d enfant
			F#
Ensemble on est devenu grand
Bm	     Bm/A	    G
De bons points en double zéro
			Em
Paralysés par tant d amour
			    F#
On s'apprivoise au jour le jour

Bm	    Bm/A		G
J ai jamais su trouver les gestes
				Em
Qui pouvaient soigner tes blessures
			  F#
Guider tes pas vers le futur
Bm	  Bm/A		  G
À tous les signaux de détresse
				Em
Dis, comment j'aurais pu faire face
			 F#
Pris entre le feu et la glace

REFRAIN:
		    Bm  Bm/A  G
Au delà de nos différences
			D
Des coups de gueule des coups de sang
	    F#		  Bm  Bm/A  G
À force d échanger nos silences
		     D
Maintenant qu on est face à face
	  F#		   Bm
On se ressemble sang pour sang
                

Comme si les battements de nos coeurs
Etaient sûr la même longueur d ondes
Les lignes de nos mains se confondent

Tu me renvois comme un miroir
Mes doutes et mes éclats de rires
La promesse d un autre avenir

Peu importe si la vie menace
Ce qui reste en nous d innocent
Puisqu on se comprend à présent

Peu à peu la douleur s efface
On en garde plus qu une trace
Comme une offense au temps qui passe

REFRAIN:
Au-delà de nos différences
Des coups de gueule des coups de sang
A force d échanger nos silences
Maintenant qu on est face à face
On se ressemble sang pour sang

Au-delà de nos différences
A force d échanger nos silences
Maintenant qu on est face à face
On se ressemble sang pour sang

Tous les deux sang pour sang
Tout les deux sang pour sang
Oui, sang pour sang


Imprimer la tab Imprimer la tab

2 commentaires »

  • Antoine :

    Bm/A:comment fait cette accords là svp »

  • luidji :

    tres belle chanson merci

Commentez la partition de Sang pour sang