Cours de guitare Cours de guitare | Nouveautés | Top 100 | Tous les accords | Blog
# a b c d e f g h i j k l m n o p q r s t u v w x y z demander une tab

Santeria tab


Tablature guitare et accords de la chanson « Santeria » de Sublime.

INTRO:
e|---------------------------------------------------------------------------|
B|------------------------4-----4-----------------5--------------7-----------|
G|------9-------9-----------5-----5--------6p4-------4h6p4---------8---------|
D|----9---9-------9-----------6-----6----6-----6---------------------9-------|
A|--7-------7-7----------6-------------4-------------------4/7\6-------6-----|
E|-------------------7\4-----------------------------------------------------|

REFRAIN:
e|---5-------7-------------------------|-5-------7----------------------------|
B|-----5-------7-----9----7--------5---|---5-------7-----9---7--5-------------|
G|-------6-------8----9--8-------6---6-|-----6-------8----9-8-----6-----------|
D|---------7-------9-----------7-------|-------7-------9------------7---------|
A|---------------------------7---------|------------------------------7-------|
E|-------------------------------------|--------------------------------------|

e|---5--------7------------------------|-5------7-------|
B|-----5--------7--------9--7-------5--|---5------7-----|
G|-------6--------8----9—--8------6--6-|-----6------8---|
D|---------7--------9-----------7-----5|------7-------9-|
A|----------------------------7--------|----------------|
E|-------------------------------------|----------------|

	E			  G#
I don't practice Santeria I ain't got no crystal ball 
  C#m				 B
I had a million dollars but I'd, I'd spend it all 
E			          G#
I could find that Heina and that Sancho that she's found 
    C#m				 B
I'd pop a cap in Sancho and I'd slap her down 

REFRAIN:
A	B	      E
All I really want to know
   A
I already know
A	B	      E
All I really want to say 
   A
I can't define 
A	B	    E	  A
It's love that I need
A	 B
But my soul will have to...

	E			 G#
Wait till I get back and find Heina of my own 
C#m			    B
Daddy's gonna love one and all 
   E			            G#
I feel the break, feel the break, feel the break 
                     C#m       B
And I got to live it out, oh yeah

REFRAIN:
		A	B	      E		A
I swear that I all really want to know
A	B	      E	      A
All I really want to say I can't define 
A      B	  E         A
That love make it go
A     B
My soul will have to

SOLO:
e|-------------------------------------------|-------------------------------|
B|-------------------------------------------|-------------------------------|
G|---------------9—11^13-11-9--8-8-8p6—8^9^8-|6-6p4---4----------------------|
D|----------9h11-----------------------------|------6---6p4—2h4p2---2--------|
A|---7—9h11----------------------------------|--------------------4---4-2----|
E|-------------------------------------------|-------------------------------|

e|-----------------------------|-7h9-9p7--------------------------------------|
B|--------------------------5--|---------9p7----------------------------------|
G|-------------------4h5h6-----|-------------9p6h9—9p6------------------------|
D|-------------4h5h6-----------|-----------------------9------9----------10-10|
A|-------2h3h4-----------------|-------------------------9/11---11-9--11--11--|
E|-2h3h4-----------------------|----------------------------------------------|

e|--------9-------------9----------------------------------------------------|
B|----------9-------------9--------------------------------------------------|
G|--11^13-----9—-11^13------9—-11^13^11---11^13^11—9-11-9--------------------|
D|---------------------------------------------------------------------------|
A|---------------------------------------------------------------------------|
E|---------------------------------------------------------------------------|

REFRAIN:
A	B	      E		A
What I really want to say, ah baby
A	B	      E		A
What I really want to say, is I've got mine
A	  B	    E		A
And I'll make it, yes I'm going up
A	  B
Tell Sanchito that...

    E			 	     G#
If he knows what is good for him He best go run and hide 
C#m		    B
Daddy's got a new .45 
     E			 	     			G#
And I won't think twice to stick that barrel straight down Sancho's throat 
C#m		    	     B
Believe me when I say that I got somethin' for his punk ass 

REFRAIN:
A	  B	    E		A
What I really want know, ah baby 
A	  B	        E		A
What I really want to say is there's just
A	B		E	 A
One way back And I'll make it, yeah
A     B			E    Eb    C#m    B    A    B    E
My soul will have to wait


Imprimer la tab Imprimer la tab

Commentez la partition de Santeria