Cours de guitare Cours de guitare | Nouveautés | Top 100 | Tous les accords | Blog
# a b c d e f g h i j k l m n o p q r s t u v w x y z demander une tab

Scar tissue tab


Tablature guitare de la chanson « Scar tissue » des Red Hot Chili Peppers.

INTRO:

e||-----------------------------------------------------------|
B||---10---10---10---10--5-5/6--6---6---6---6\5---------------|
G||-----------------------------------------------------------|
D||-----------------------------------------------------------|
A||-8----8----8----8-----3-3/5----5---5---5---\3--3-----------|
E||-----------------------------------------------------------|

e|------------------------------------------------------------|
B|---10---10---10---10-8--5/6----8p6-8p6----------------------|
G|------------------------------------------------------------|
D|------------------------------------------------------------|
A|-8----8----8----8-------3/5---------------------------------|
E|------------------------------------------------------------|

COUPLETS:

e|------------------------------------------------------------|
B|---10---10---10---10\-5-5/6--6---6---6---6\5----------------|
G|------------------------------------------------------------|
D|------------------------------------------------------------|
A|-8----8----8----8---\-3-3/5----5---5---5--\3--3-------------|
E|------------------------------------------------------------|      

e|---------------------8--------------------------------------|
B|---10---10---10---10------10---10---10-8-6-5----------------|
G|------------------------------------------------------------|
D|------------------------------------------------------------|
A|-8----8----8----8-------------------------------------------|
E|------------------------8-10--------------------------------|

ACCORDS ET PAROLES:

F
 Scar tissue that I wish you saw
Dm
 Sarcastic mister know it all
F
 Close your eyes and I’ll kiss you ’cause
     Dm
 With the birds I’ll share

REFRAIN:
F
 With the birds I’ll share
     Dm
 This lonely view
F
 With the birds I’ll share
     Dm
 This lonely view

F
 Push me up against the wall
Dm
 Young Kentucky girl in a push-up bra
F
 Fallin’ all over myself
   Dm
 To lick your heart and taste your health ’cause

REFRAIN:
F
 With the birds I’ll share
     Dm
 This lonely view
F
 With the birds I’ll share
     Dm
 This lonely view

F
 Blood loss in a bathroom stall
Dm
 Southern girl with a scarlet drawl
F
 Wave goodbye to ma and pa ’cause
     Dm
 With the birds I’ll share

REFRAIN:
F
 With the birds I’ll share
     Dm
 This lonely view
F
 With the birds I’ll share
     Dm
 This lonely view

F
 Soft spoken with a broken jaw
Dm
 Step outside but not to brawl
F
 Autumn’s sweet we call it fall
     Dm
 I’ll make it to the moon if I have to crawl and

REFRAIN:
F
 With the birds I’ll share
     Dm
 This lonely view
F
 With the birds I’ll share
     Dm
 This lonely view

F
 Scar tissue that I wish you saw
Dm
 Sarcastic mister know it all
           F
 Close your eyes and I’ll kiss you ’cause
     Dm
 With the birds I’ll share

REFRAIN:
F
 With the birds I’ll share
     Dm
 This lonely view
F
 With the birds I’ll share
     Dm
 This lonely view


Imprimer la tab Imprimer la tab

Commentez la partition de Scar tissue