Cours de guitare Nouveautés | Top 100 | Tous les accords
# a b c d e f g h i j k l m n o p q r s t u v w x y z demander une tab

Your call tab

Vidéo guitare et chant, tablature gratuite, accords, paroles de la chanson «Your call» de Secondhand Serenade.

Tablature, accords, paroles

Intro

e|---------------------------------------|    
B|---------------------------------------|    
G|-------0-------0-------0-------0-------|   
D|-----0--0----4--4----7--7----7--0------|   x2 
A|---3-------5-------9-------9-----------|    
E|---------------------------------------| 


Couplet 1
e|---------------------------------------|    
B|---------------------------------------|    
G|-------0-------0-------0-------0-------|   
D|-----0--0----4--4----7--7----7--0------|   x6
A|---3-------5-------9-------9-----------|    
E|---------------------------------------|

Waiting for your, call I'm sick, call I'm angry 
call I'm desperate for your voice 
Listening to the song we used to sing 
In the car, do you remember 
Butterfly, Early Summer 
It's playing on repeat, Just like when we would meet 
Like when we would meet... 

Refrain
e|----------------------------------------------------------|    
B|----------------------------------------------------------|    
G|-------0-------0-------0--------0----------0--------0-----|   
D|-----0--0----0--0----4---4----4---4------7---7----7---7---|   
A|-------------------5--------5----------9--------9---------|    
E|---3-------3----------------------------------------------|

e|---------------------|   
B|---------------------|  
G|-------0-------0-----|   
D|-----0--0----0--0----|
A|---3-------3---------|
E|---------------------|

e|---------------------------------------------------------------|    
B|---------------------------------------------------------------|    
G|---------0--------0--------0--------0--------0---------0-------|   
D|-------0---0----0---0----4---4----4---4----7---7-----7---7-----|   
A|-----------------------5--------5--------9---------9-----------|    
E|-----3--------3------------------------------------------------|

e|---------------------------------|   
B|---------------------------------|  
G|-------0-------0--------0----0~--|   
D|-----0--0----0--0-----0---0--0~--|
A|---3-------3--------3--------3~--|
E|---------------------------------|

Cause I was born to tell you I love you 
and I am torn to do what I have to, to make you mine 
Stay with me tonight.


Couplet 2
e|----------------------------|   
B|----------------------------|  
G-----------------------------|   
D|----------------------------|   x4
A|---3-----5------------------|
E|--------------0----0--------|

e|---------------------------------------|    
B|---------------------------------------|    
G|-------0-------0-------0-------0-------|   
D|-----0--0----4--4----7--7----7--0------|   x2 
A|---3-------5-------9-------9-----------|    
E|---------------------------------------| 

Stripped and pollished, I am new, I am fresh 
I am feeling so ambitious, you and me, flesh to flesh 
Cause every breath that you will take 
when you are sitting next to me 
will bring life into my deepest hopes, What's your fantasy? 
(What's your, what's your...) 

Refrain
e|----------------------------------------------------------|    
B|----------------------------------------------------------|    
G|-------0-------0-------0--------0----------0--------0-----|   
D|-----0--0----0--0----4---4----4---4------7---7----7---7---|   
A|-------------------5--------5----------9--------9---------|    
E|---3-------3----------------------------------------------|

e|---------------------|   
B|---------------------|  
G|-------0-------0-----|   
D|-----0--0----0--0----|
A|---3-------3---------|
E|---------------------|

e|---------------------------------------------------------------|    
B|---------------------------------------------------------------|    
G|---------0--------0--------0--------0--------0---------0-------|   
D|-------0---0----0---0----4---4----4---4----7---7-----7---7-----|   
A|-----------------------5--------5--------9---------9-----------|    
E|-----3--------3------------------------------------------------|

e|---------------------------------|   
B|---------------------------------|  
G|-------0-------0--------0----0~--|   
D|-----0--0----0--0-----0---0--0~--|
A|---3-------3--------3--------3~--|
E|---------------------------------|

Cause I was born to tell you I love you 
and I am torn to do what I have to, to make you mine 
Stay with me tonight.


Post-Refrain
e|--------------------------------------------|   
B|--------------------------------------------|  
G|-------0-------0--------0---------0---------|   
D|-----7--7----4--4-----0---0-----4---4-------|  x8
A|---9-------5--------3---------5-------------|
E|--------------------------------------------|


Refrain
e|----------------------------------------------------------|    
B|----------------------------------------------------------|    
G|-------0-------0-------0--------0----------0--------0-----|   
D|-----0--0----0--0----4---4----4---4------7---7----7---7---|   
A|-------------------5--------5----------9--------9---------|    
E|---3-------3----------------------------------------------|

e|---------------------|   
B|---------------------|  
G|-------0-------0-----|   
D|-----0--0----0--0----|   x2
A|---3-------3---------|
E|---------------------|

e|----------------------------------------------------------|    
B|----------------------------------------------------------|    
G|-------0-------0-------0--------0----------0--------0-----|   
D|-----0--0----0--0----4---4----4---4------7---7----7---7---|   
A|-------------------5--------5----------9--------9---------|    
E|---3-------3----------------------------------------------|

e|---------------------------------|   
B|---------------------------------|  
G|-------0-------0--------0----0~--|   
D|-----0--0----0--0-----0---0--0~--|
A|---3-------3--------3--------3~--|
E|---------------------------------|

And I'm tired of being all alone, 
and this solitary moment makes me want to come back home 
x4 
(I know everything you wanted isn't anything you have) 

Cause I was born to tell you I love you 
and I am torn to do what I have to, to make you mine 
Stay with me tonight 

Cause I was born to tell you I love you 
and I am torn to do what I have to, to make you mine 
Stay with me tonight 
(I know everything you wanted isn't anything you have)

Imprimer la tab Imprimer la tab

5 commentaires »

  • Benoit :

    Bonjour alors il y a une erreur dans cette tab

    c’est:
    e——————————————
    b——————————————
    g———–0—————0————–
    D——–5—–5———5—–5———–
    A—–7—————7——————–
    E——————————————

    ça sonne tout de suite beaucoup mieux ^^

  • fauvedu974 :

    lu tlm j’aime bien cette chanson mé sur la fin j’aimerais savoir lé accord et la facon gratte
    svp

  • tomtom :

    lool j’avoue que la faute est assez flagrante …

  • frederike :

    Mais posédez vous les partitions de piano aussi de cette chanson ???
    Mercii de m’en informer le plus rapidement possible, j’aimerais énormément les avoirs ! <3

  • Jack :

    Je l’ai corrigé sans m’en redre compte moi ! :)

Commentez la tablature