Cours de guitare Cours de guitare | Nouveautés | Top 100 | Tous les accords | Blog
# a b c d e f g h i j k l m n o p q r s t u v w x y z demander une tab

At seventeen tab


Tablature guitare de la chanson « At seventeen » de Janis Ian.

INTRO:

    Cadd9 C      Cmaj7           C6    C
e|--0--x--0-0--x--0--|--x--0--x--0--0--0-----|
B|--3--x--1-1--x--1--|--x--1--x--1--1--1-----|
G|--0--x--0-0--x--4--|--x--4--x--2--2--0-----|
D|-------------------|-----------------------|
A|--3--x--3-3--x--3--|--x--3--x--3--------3--|
E|-------------------|-----------------------| (x2)

COUPLET 1:

    Cadd9 C      Cmaj7           C6    C
e|--0--x--0-0--x--0--|--x--0--x--0--0--0-----|
B|--3--x--1-1--x--1--|--x--1--x--1--1--1-----|
G|--0--x--0-0--x--4--|--x--4--x--2--2--0-----|
D|-------------------|--------------------0--|
A|--3--x--3-3--x--3--|--x--3--x--3-----------|
E|-------------------|-----------------------|

  Cadd9       C        Cmaj7 C6   C
I learned the truth at seven-teen,

   D7sus4 Dm7     A/D            Dm7
e|--3--x--1-1--x--0--|--x--0--x--1--1--x-----|
B|--1--x--1-1--x--2--|--x--2--x--1--1--x-----|
G|--2--x--2-2--x--2--|--x--2--x--2--2--x-----|
D|--0--x--0-0--x--0--|--x--0--x--0-----x-----|
A|-------------------|--------------------0--|
E|-------------------|-----------------------|

     D7sus4   Dm7       A/D    Dm7
That love was meant for beauty queens.

    G7/B
e|--1--x--1-1--x--1--|--x--1--x--1--1--x-----|
B|--3--x--3-3--x--3--|--x--3--x--3--3--x-----|
G|--0--x--0-0--x--0--|--x--0--x--0--0--x-----|
D|-------------------|-----------------------|
A|--2--x--2-2--x--2--|--x--2--x--2-----x--3--|
E|-------------------|-----------------------|

    G7/B
And high school girls with clear skinned smiles,

    Cadd9 C      Cmaj7           C6    C
e|--0--x--0-0--x--0--|--x--0--x--0--0--0-----|
B|--3--x--1-1--x--1--|--x--1--x--1--1--1-----|
G|--0--x--0-0--x--4--|--x--4--x--2--2--0-----|
D|-------------------|-----------------------|
A|--3--x--3-3--x--3--|--x--3--x--3--------3--|
E|-------------------|-----------------------|

    Cadd9   C         Cmaj7   C6    C
Who married young and then re-tired.

    Cadd9 C      Cmaj7           C6    C
e|--0--x--0-0--x--0--|--x--0--x--0--0--0-----|
B|--3--x--1-1--x--1--|--x--1--x--1--1--1-----|
G|--0--x--0-0--x--4--|--x--4--x--2--2--0-----|
D|-------------------|-----------------------|
A|--3--x--3-3--x--3--|--x--3--x--3--------3--|
E|-------------------|-----------------------|

COUPLET 2:

    Cadd9 C       Cmaj7 C6   C
The Valen-tines I never knew,
    D7sus4 Dm7        A/D      Dm7
The Friday nights cha-rades of youth.
     G7/B
Were spent on one more beautiful;
   Cadd9 C       Cmaj7       C6    C
At seven-teen, I learned the truth.

    Cadd9 C      Cmaj7           C6    C
e|--0--x--0-0--x--0--|--x--0--x--0--0--0-----|
B|--3--x--1-1--x--1--|--x--1--x--1--1--1-----|
G|--0--x--0-0--x--4--|--x--4--x--2--2--0-----|
D|-------------------|--------------------0--|
A|--3--x--3-3--x--3--|--x--3--x--3-----------|
E|-------------------|-----------------------|

REFRAIN:

    Eb6
e|--3--x--3-3--x--3--|--x--3--x--3--3--x--1--|
B|--1--x--1-1--x--1--|--x--1--x--1--1--x--1--|
G|--3--x--3-3--x--3--|--x--3--x--3--3--x--2--|
D|--1--x--1-1--x--1--|--x--1--x--1--1--x--0--|
A|-------------------|-----------------------|
E|-------------------|-----------------------|

    Eb6
And those of us with ravaged faces,

    Dm7                    G7/B
e|--1--x--1-1--x--1--|--x--1--x--1--x--1--x--|
B|--1--x--1-1--x--3--|--x--3--x--3--x--3--x--|
G|--2--x--2-2--x--0--|--x--0--x--0--x--0--x--|
D|--0--x--0-0--x-----|-----------------------|
A|----------------2--|--x--2--x--2--x--2--x--|
E|-------------------|-----------------------|

Dm              G7/B
 Lacking in the social graces,

    Cm7                     Fm7
e|--------------------|----------------------|
B|--8--x--8-8--x--9---|--x--9---x-----8--9---|
G|--8--x--8-8--x--8---|--x--8---x-----8--8---|
D|--8--x--8-8--x--10--|--x--10--x-----8--10--|
A|----------------8---|--x--8---x--8---------|
E|--8--x--8-8--x------|----------------------|

Cm7             Fm7
 Desperately re-mained at home,

    Cm7                     Fm7
e|--------------------|----------------------|
B|--8--x--8-8--x------|--x--9---x-----8--9---|
G|--8--x--8-8--x------|--x--8---x-----8--8---|
D|--8--x--8-8--x------|--x--10--x-----8--10--|
A|----------------8---|--x--8---x--8---------|
E|--8--x--8-8--x------|----------------------|

   Cm7            Fm7
In-venting lovers on the phone.

    Ab               G7
e|------8---8--7--|--7----8--10--|
B|------9---9--6--|--6-----------|
G|------8---8--7--|--7--0-8--10--|
D|--10------------|--------------|
A|----------------|--------------|
E|----------------|--------------|

    Ab                    G7
Who called and say; "come dance with me",

    Cm7                     Fm7
e|--8--x-------x------|----------------------|
B|--8--x--8-8--x--9---|--x--9---x-----8--9---|
G|--8--x--8-8--x--8---|--x--8---x-----8--8---|
D|--8--x--8-8-----10--|--x--10--x-----8--10--|
A|----------------8---|--x--8---x--8---------|
E|--------------------|----------------------|

    Cm7               Fm7
And murmured vague ob-scenities.

    Dm7*                                        G7*
e|-----8----------x-----|-----x--------x-----|----------3--|--3--------|
B|-----6-------6--x--6--|--6--x--6--6--x-----|--0-------3--|--3-----3--|
G|-------------5--x--5--|--5--x--5--5--x-----|-----4----4--|--4--5-----|
D|----------7-----x--7--|--7--x--7--7--x-----|-------------|-----------|
A|--5--5-5-----------5--|--5-----5--5-----0--|--2----------|-----------|
E|----------------------|--------------------|-------------|-----------|

Dm7*                       G7*
 It isn't all it seems, at seventeen.

COUPLET 3:

  Cadd9      C       Cmaj7   C6    C
A brown eyed girl in hand-me-downs,
      D7sus4 Dm7   A/D       Dm7
Who's name I never could pro-nounce,
       G7/B
Said; "pity please, the ones who serve,
     Cadd9 C        Cmaj7   C6    C
They only  get what they de-serve.

    Cadd9 C      Cmaj7           C6    C
e|--0--x--0-0--x--0--|--x--0--x--0--0--0-----|
B|--3--x--1-1--x--1--|--x--1--x--1--1--1-----|
G|--0--x--0-0--x--4--|--x--4--x--2--2--0-----|
D|-------------------|-----------------------|
A|--3--x--3-3--x--3--|--x--3--x--3--------3--|
E|-------------------|-----------------------|

COUPLET 4:

    Cadd9   C        Cmaj7     C6    C
The rich re-lationed home-town queen,
D7sus4   Dm7  A/D      Dm7
 Marries into what she needs.
  G7/B
A guarantee of company,
    Cadd9 C       Cmaj7 C6  C
And haven for the elder-ly".

    Cadd9 C      Cmaj7           C6    C
e|--0--x--0-0--x--0--|--x--0--x--0--0--0-----|
B|--3--x--1-1--x--1--|--x--1--x--1--1--1-----|
G|--0--x--0-0--x--4--|--x--4--x--2--2--0-----|
D|-------------------|--------------------0--|
A|--3--x--3-3--x--3--|--x--3--x--3-----------|
E|-------------------|-----------------------|

REFRAIN:

   Eb6                           Dm7                 G7/B
Re-member those who win the game, lose the love they sought to gain.
   Cm7           Fm7          Cm7        Fm7
In debentures of quality, and dubious in-tegrity.
      Ab                   G7
Their small town eyes will gape at you;
   Cm7                 Fm7
In dull surprise, when payment due;
Dm7*                          (Gadd9)
 Exceeds accounts received, at seventeen.

    Gadd9
e|--5--5--5-5-x-5--|--5-5-x-5--5-5-x-5--|
B|--3--3--3-3-x-3--|--3-3-x-3--3-3-x-3--|
G|--4--4--4-4-x-4--|--4-4-x-4--4-4-x-4--|
D|--5--5--5-5-x-5--|--5-5-x-5--5-5-x-5--|
A|-----------------|--------------------|
E|-----------------|--------------------|

INTERLUDE:

    Csus2/4 C    Cmaj7         C6      C
e|--1-1-1---1-0--0-0--|--0-0-0-0--0-0--0--x--|
B|--3-3-3---1-1--0-0--|--0-0-0-1--1-1--1--x--|
G|--0-0-0---0-0--0-0--|--0-0-0-2--2-2--0--x--|
D|--------------------|----------------------|
A|--3-3-3---3-3--3-3--|--3-3-3-3--3-3--3--x--|
E|--------------------|----------------------|

    D7sus4 Dm7   A/D             Dm7
e|--3-3-3--1--1--0-0--|--0-0--x--1-1-1-x--|
B|--1-1-1--1--1--2-2--|--2-2--x--1-1-1-x--|
G|--2-2-2--2--2--2-2--|--2-2--x--2-2-2-x--|
D|--0-0-0--0--0--0-0--|--0-0--x--0-0-0-x--|
A|--------------------|-------------------|
E|--------------------|-------------------|

    G7/B
e|--1-1-x-1--1-1-x-1--|--1-1-x-1--1-1-x-1--|
B|--3-3-x-3--3-3-x-3--|--3-3-x-3--3-3-x-3--|
G|--0-0-x-0--0-0-x-0--|--0-0-x-0--0-0-x-0--|
D|--------------------|--------------------|
A|--2-2-x-2--2-2-x-2--|--2-2-x-2--2-2-x-2--|
E|--------------------|--------------------|

    Csus2/4 C    Cmaj7         C6      C
e|--1-1-1---1-0--0-0--|--0-0-x-0--0-0--0--x--|
B|--3-3-3---1-1--0-0--|--0-0-x-1--1-1--1--x--|
G|--0-0-0---0-0--0-0--|--0-0-x-2--2-2--0--x--|
D|--------------------|----------------------|
A|--3-3-3---3-3--3-3--|--3-3-x-3--3-3--3--x--|
E|--------------------|----------------------|

    Eb6
e|--3--x--3-3--x--3--|--x--3--x--3--3--x--1--|
B|--1--x--1-1--x--1--|--x--1--x--1--1--x--1--|
G|--3--x--3-3--x--3--|--x--3--x--3--3--x--2--|
D|--1--x--1-1--x--1--|--x--1--x--1--1--x--0--|
A|-------------------|-----------------------|
E|-------------------|-----------------------|

    Dm7                    G7/B
e|--1--x--1-1--x--1--|--x--1--x--1--x--1--x--|
B|--1--x--1-1--x--3--|--x--3--x--3--x--3--x--|
G|--2--x--2-2--x--0--|--x--0--x--0--x--0--x--|
D|--0--x--0-0--x-----|-----------------------|
A|----------------2--|--x--2--x--2--x--2--x--|
E|-------------------|-----------------------|

    Cm7                     Fm7
e|--------------------|----------------------|
B|--8--x--8-8--x--9---|--x--9---x-----8--9---|
G|--8--x--8-8--x--8---|--x--8---x-----8--8---|
D|--8--x--8-8--x--10--|--x--10--x-----8--10--|
A|----------------8---|--x--8---x--8---------|
E|--8--x--8-8--x------|----------------------|

    Cm7                     Fm7
e|--------------------|----------------------|
B|--8--x--8-8--x------|--x--9---x-----8--9---|
G|--8--x--8-8--x------|--x--8---x-----8--8---|
D|--8--x--8-8--x------|--x--10--x-----8--10--|
A|----------------8---|--x--8---x--8---------|
E|--8--x--8-8--x------|----------------------|

    Ab               G7
e|------8---8--7--|--7----8--10--|
B|------9---9--6--|--6-----------|
G|------8---8--7--|--7--0-8--10--|
D|--10------------|--------------|
A|----------------|--------------|
E|----------------|--------------|

    Cm7                     Fm7
e|--8--x-------x------|----------------------|
B|--8--x--8-8--x--9---|--x--9---x-----8--9---|
G|--8--x--8-8--x--8---|--x--8---x-----8--8---|
D|--8--x--8-8-----10--|--x--10--x-----8--10--|
A|----------------8---|--x--8---x--8---------|
E|--------------------|----------------------|

    Dm7*                                        G7*
e|-----8----------x-----|-----x--------x-----|----------3--|--3--------|
B|-----6-------6--x--6--|--6--x--6--6--x-----|--0-------3--|--3-----3--|
G|-------------5--x--5--|--5--x--5--5--x-----|-----4----4--|--4--5-----|
D|----------7-----x--7--|--7--x--7--7--x-----|-------------|-----------|
A|--5--5-5-----------5--|--5-----5--5-----0--|--2----------|-----------|
E|----------------------|--------------------|-------------|-----------|

    Cadd9 C      Cmaj7           C6    C
e|--0--x--0-0--x--0--|--x--0--x--0--0--0-----|
B|--3--x--1-1--x--1--|--x--1--x--1--1--1-----|
G|--0--x--0-0--x--4--|--x--4--x--2--2--0-----|
D|-------------------|-----------------------|
A|--3--x--3-3--x--3--|--x--3--x--3--------3--|
E|-------------------|-----------------------| (x2)

COUPLET 5:

   Cadd9    C      Cmaj7    C6   C
To those of us who know the pain,
   D7sus4 Dm7        A/D   Dm7
Of valen -tines that never came.
    G7/B
And those whose name were never called,
     Cadd9    C        Cmaj7  C6   C
When choosing sides at basket-ball.

    Cadd9 C      Cmaj7           C6    C
e|--0--x--0-0--x--0--|--x--0--x--0--0--0-----|
B|--3--x--1-1--x--1--|--x--1--x--1--1--1-----|
G|--0--x--0-0--x--4--|--x--4--x--2--2--0-----|
D|-------------------|-----------------------|
A|--3--x--3-3--x--3--|--x--3--x--3--------3--|
E|-------------------|-----------------------|

COUPLET 6:

       Cadd9  C      Cmaj7 C6    C
It was long a-go and far a-way,
    D7sus4    Dm7     A/D     Dm7
The world was younger than to-day.
    G7/B
And dreams were all they gave for free,
   Cadd9  C       Cmaj7      C6  C
To ugly  duckling girls like me.

    Cadd9 C      Cmaj7           C6    C
e|--0--x--0-0--x--0--|--x--0--x--0--0--0-----|
B|--3--x--1-1--x--1--|--x--1--x--1--1--1-----|
G|--0--x--0-0--x--4--|--x--4--x--2--2--0-----|
D|-------------------|--------------------0--|
A|--3--x--3-3--x--3--|--x--3--x--3-----------|
E|-------------------|-----------------------|

REFRAIN:

       Eb6                                Dm7                G7
We all play the game and when we dare, to cheat ourselves at solitaire.
   Cm7            Fm7              Cm7           Fm7
In-venting lovers on the phone, re-penting other lives unknown.
     Ab                  G7
That call and say; "come dance with me",
    Cm7             Fm7
And murmur vague ob-scenities,
Dm7*                      (G7/B)
 At ugly girls like me; at seventeen.

    G7/B
e|--1--x--1-1--x--1--|--x--1--x--1--1--x-----|
B|--3--x--3-3--x--3--|--x--3--x--3--3--x-----|
G|--0--x--0-0--x--0--|--x--0--x--0--0--x-----|
D|-------------------|-----------------------|
A|--2--x--2-2--x--2--|--x--2--x--2--2--x--3--|
E|-------------------|-----------------------|

OUTRO:

    Cadd9       Cmaj7                  Cadd9
e|--0--0-0-0-0--0-0--|--0--0-0-0-0--|--0-------------|
B|--3--3-3-1-1--1-1--|--1--1-1-1-1--|--3-------------|
G|--0--0-0-0-0--4-4--|--4--2-2-2-0--|--0--0--0-------|
D|-------------------|--------------|----------------|
A|--3----------------|--------------|--3-------------|
E|-------------------|--------------|----------------|


Imprimer la tab Imprimer la tab

Commentez la partition de At seventeen