Cours de guitare Cours de guitare | Nouveautés | Top 100 | Tous les accords | Blog
# a b c d e f g h i j k l m n o p q r s t u v w x y z demander une tab

Black hole sun tab


Tablature de la chanson « Black hole sun » de Soundgarden.

    Gsus4                                  F                    Em
e*|-------------------|------------------|-------------------|------------------|
B*|-------------------|------------------|-------------------|------------------|
G*|----------5--------|-------------5----|----------5--------|-------------4----|
D*|-------5------5----|----------5-------|-------3------3----|----------2-------|
A*|----5------------5-|-------5----------|----3------------3-|-------2----------|
D*|-5-----------------|-5--8-------------|-3-----------------|-0--2-------------|

      Dsus4#               D7
e*|---------------------|------------------|------------------------------------|
B*|---------------------|------------------|------------------------------------|
G*|-------------1-------|-------------2----|------------------------------------|
D*|----------1-----1----|----------0-------|------------------------------------|
A*|-------1-----------1-|-------3----------|------------------------------------|
D*|-0--1----------------|-1--0-------------|------------------------------------|


COUPLET

     G/Em                   Gm             F                      G/Em
e*|----------12---------------------10---|---------13------------------------12----|
B*|o-----12------12----12-------11-------|-----13------13----13----------12--------|
G*|--12-------------12------12-----------|-10-------------10------10/12------------|
D*|--------------------------------------|-----------------------------------------|
A*|o-------------------------------------|-----------------------------------------|
D*|--------------------------------------|-----------------------------------------|
 In my eyes,    indisposed,        in disguis   as  no-one  knows...


    D#                     Dsus                  G/Em        G7          G#                        
e*|---------11---------------------10-----------|-------12----------10----------11--||
B*|-----11------11----11-------10------10----10-|----12----------12----------13----o||
G*|-12-------------12------12-------------12----|-12-------12-10-------10-13--------||
D*|---------------------------------------------|-----------------------------------||
A*|---------------------------------------------|----------------------------------o||
D*|---------------------------------------------|-----------------------------------||
 Hides the face,     lies the snake,         the sun in my disgrace...
  
             G/Em                 Gm                   F               G/Em
 Boiling heat,     summer stench,         'neath the black the sky looks dead.
             D#                   Dsus                 G/Em     G7     G#           
 Call  my  name    through    the  cream   and  I'll  hear you  scream again.


Pré-refrain

e*|------------------|------------------|------------|------------|---------------|
B*|------------------|------------------|------------|------------|----------3----|
G*|----------1-------|----------2-------|------------|------------|-------3-----3-|
D*|-------1------1---|-------0-----0----|-------5----|-------5----|----3----------|
A*|----1-----------1-|----3-----------3-|----5-----5-|----5-----5-|-1-------------|
D*|-1----------------|-0----------------|-5----------|-3----------|---------------|
 Black hole  sun won't you come      and    wash    away   the   rain?

e*|------------------|------------------|----------------|-2--------------------|
B*|------------------|------------------|------5h6-5-----|-3--------------------|
G*|----------1-------|----------2-------|-5----5------5--|-2--------------------|
D*|-------1------1---|-------0-----0----|-5----5------5--|-0--------------------|
A*|----1-----------1-|----3-----------3-|-3-----------3--|-0--------------------|
D*|-1----------------|-0----------------|----------------|-x--------------------|
 Black hole  sun won't you come-- won't you come, won't you come?


COUPLET

           G/Em                 Gm                  F                 G/Em
 Stutter-ing,         cold and damp,     steal the warm wind   tired  friend.
             D#                   Dsus              G/Em      G7       G#           
 Times are   gone    for   honest men and sometimes  far too   long for  snakes.
             G/Em                 Gm                   F               G/Em
 In my shoes,         a walking sleep,        and my youth I pray to keep.
             D#                   Dsus        G/Em        G7        G#           
 Heaven   send     hell  away, no-one        sings like   you    anymore.


Pré-refrain

e*|------------------|-------------------|------------|------------|---------------|
B*|------------------|-------------------|------------|------------|----------3----|
G*|----------1-------|----------2--------|------------|------------|-------3-----3-|
D*|-------1------1---|-------0-----0-----|-------5----|-------5----|----3----------|
A*|----1-----------1-|----3-----------3--|----5-----5-|----5-----5-|-1-------------|
D*|-1----------------|-0-----------------|-5----------|-3----------|---------------|
 Black hole  sun won't you come      and   wash   away   the   rain?

e*|------------------|-------------------|----------------|---------------|
B*|------------------|-------------------|-3----3--3---3--|-1-------3-----|
G*|----------1-------|----------2--------|-5----5--5---5--|-3----3-----3--|
D*|-------1------1---|-------0-----0-----|-5----5--5---5--|-3----3--------|
A*|----1-----------1-|----3-----------3--|-3----3--3---3--|-1----1--------|
D*|-1----------------|-0-----------------|----------------|---------------|
 Black hole  sun won't you come-- won't you co--me?

e*|------------------|------------------|------------|------------|---------------|
B*|------------------|------------------|------------|------------|----------3----|
G*|----------1-------|----------2-------|------------|------------|-------3-----3-|
D*|-------1------1---|-------0-----0----|-------5----|-------5----|----3----------|
A*|----1-----------1-|----3-----------3-|----5-----5-|----5-----5-|-1-------------|
D*|-1----------------|-0----------------|-5----------|-3----------|---------------|
 Black hole  sun won't you come      and    wash   away   the   rain?

e*|------------------|-------------------|
B*|------------------|-------------------|
G*|----------1-------|----------2--------|
D*|-------1------1---|-------0-----0-----|
A*|----1-----------1-|----3-----------3--|
D*|-1----------------|-0-----------------|
 Black hole  sun won't you come-- 


REFRAIN

e*|---3---3--3---3--|-1---1--1---1--|-2---2--2---2---||
B*|o--3---3--3---3--|-1---1--1---1--|-3---3--3---3--o||
G*|---5---5--5---5--|-3---3--3---3--|-2---2--2---2---||
D*|---5---5--5---5--|-3---3--3---3--|-0---0--0---0---||
A*|o--3---3--3---3--|-1---1--1---1--|-0---0--0---0--o||
D*|---3---3------3--|-1---1---------|-x---x--x---x---||
                                                     4x  
Won't you co--me?    Black hole sun, black hole sun. (x4)

SOLO

COUPLET

                G/Em                 Gm                F                 G/Em
 Hang  my  head,         drown my fear,       'till you all just dis-a-ppear.


Pré-refrain

e*|-----|------------------|------------------|--------------|------------|---------------|
B*|-----|------------------|------------------|--------------|------------|----------3----|
G*|-----|----------1-------|----------2-------|--------------|------------|-------3-----3-|
D*|-----|-------1------1---|-------0-----0----|---------5----|-------5----|----3----------|
A*|-----|----1-----------1-|----3-----------3-|------5-----5-|----5-----5-|-1-------------|
D*|-12\-|-1----------------|-0----------------|-3/5----------|-3----------|---------------|
 Black hole  sun won't you come      and    wash   away   the   rain?

e*|------------------|------------------|---------------|--------------|
B*|------------------|------------------|-3---3--3---3--|-1------3-----|
G*|----------1-------|----------2-------|-5---5--5---5--|-3---3-----3--|
D*|-------1------1---|-------0-----0----|-5---5--5---5--|-3---3--------|
A*|----1-----------1-|----3-----------3-|-3---3--3---3--|-1---1--------|
D*|-1----------------|-0----------------|---------------|--------------|
 Black hole  sun won't you come-- won't you co--me?

 Black hole  sun won't you come      and    wash   away   the   rain?

REFRAIN

e*|---3---3--3---3--|-1---1--1---1--|-2---2--2---2---||
B*|o--3---3--3---3--|-1---1--1---1--|-3---3--3---3--o||
G*|---5---5--5---5--|-3---3--3---3--|-2---2--2---2---||
D*|---5---5--5---5--|-3---3--3---3--|-0---0--0---0---||
A*|o--3---3--3---3--|-1---1--1---1--|-0---0--0---0--o||
D*|---3---3------3--|-1---1---------|-x---x--x---x---||
                                                     8x  
Won't you co--me?    Black hole sun, black hole sun. (x8)


e*|--------------------------------x---|-----------------*|
B*|--------------------------5---5-x---|-----------------*|
G*|--------------------------4---4-x---|-----------------*|
D*|--------------------4--3--3---3-----|-3=/5--5---------*|
A*|-3--2---0---2/3--5--4--3------------|-3=/5--5---------*|
D*|-----------------5--4--3------------|-3=/5--5---------*|


LEGENDE :
 h   - hammer-on
 p   - pull-off
 b   - bend
 r   - bend release 
 /\  - slide into or out of
 s   - legato slide
 ~   - vibrato
 tr  - trill
 TP  - trem. picking
 PM  - palm muting
\n/  - tremolo bar dip; n = amount to dip
 \n  - tremolo bar down
 n/  - tremolo bar up
/n\  - tremolo bar inverted dip
 =   - hold bend
 <>  - volume swell (louder/softer)
 x   - on rhythm slash represents muted slash


Imprimer la tab Imprimer la tab

Commentez la partition de Black hole sun