Cours de guitare Cours de guitare | Nouveautés | Top 100 | Tous les accords | Blog
# a b c d e f g h i j k l m n o p q r s t u v w x y z demander une tab

Spirit bird tab


Tablature guitare de la chanson « Spirit bird » de Xavier Rudd.

    F
e|-1-----------1-----------3--------1----1----------------------------------|
B|----1-----------1-----------1-------------1-------------------------------|
G|-------2-----------2-----------2-------------2----------------------------|
D|-3--------3-----------3--3--------3----3----------------------------------|
A|--------------------------------------------------------------------------|
E|--------------------------------------------------------------------------|

    Am
e|-------------0------------------------------------------------------------|
B|-1--------------2--------3--------1----1----------------------------------|
G|----2--------------2--------2-------------2-------------------------------|
D|-------2-----------------------2-------------2----------------------------|
A|-0--------0-----------0--0--------0----0----------------------------------|
E|--------------------------------------------------------------------------|

    C
e|-------------0------------------------------------------------------------|
B|-1--------------1--------3--------1----1----------------------------------|
G|----0--------------0--------0-------------0-------------------------------|
D|-------2-----------------------2-------------2----------------------------|
A|-3--------3-----------3--3--------3----3----------------------------------|
E|--------------------------------------------------------------------------|

    G
e|-------------3------------------------------------------------------------|
B|-0--------------0--------1--------1----3----------------------------------|
G|----0--------------0--------0-------------0-------------------------------|
D|-------0-----------------------0------------------------------------------|
A|--------------------------------------------------------------------------|
E|-3--------3-----------3--3--------3---------------------------------------|


Imprimer la tab Imprimer la tab

Commentez la partition de Spirit bird