Cours de guitare Cours de guitare | Nouveautés | Top 100 | Tous les accords | Blog
# a b c d e f g h i j k l m n o p q r s t u v w x y z demander une tab

Des hauts, des bas tab


Tablature de la chanson « Des hauts, des bas » de Stephan Eicher.

INTRO et COUPLETS:

   Gm    Gm9         C     F
e|-----------------|---------------|
B|---------10~-----|---------------|
G|-----12-----12---|---5------10---|
D|---12---------12s|--5-5---10--10-|
A|-10----10--------|-3---3s8-------|
E|-----------------|---------------|

Refrain :
   D#          F              Gm          C
e|--------------------------|---------------------------|
B|-------8-----------10-----|-------10----------8-------|
G|-----8---8-----10----10---|-----12---12----9----9---9-|
D|---8-------8--10-10----10-|---12---------10-10----10--|
A|-6-----------8------------|-10------------------------|
E|--------------------------|-------------8-------------|

   D#          F              Gm          C     F
e|--------------------------|---------------------------|
B|-------8-----------10-----|-------10-------------10---|
G|-----8----8-----10---10---|-----12---12----9-------10-|
D|---8----------10-10----10-|---12---------10-10-10-----|
A|-6-----------8------------|-10----------------8-------|
E|--------------------------|-------------8-------------|

puis riff ( saturation):
   Gm      Gm       C       F
   / / / / / / / /  / / / / / / / /
e|----------------|----------------|
B|----------------|---------10-----|
G|-4-------4------|-9-------10-----|
D|-5-------5------|-10------10-----| x4
A|-5-------5------|-10------8------|
E|-3-------3------|-8--------------|

Intro (x4)

Couplet 1:
  La pluie venait du nord     Le vent passait sous ma porte
  Je comptais vivre fort      Et que le diable m'emporte
  J'allais à  la fenêtre      Enroule dans un drap
  Je secouais la tête         Et j'en écartais les bras

Refrain:
            D#                    F
J'avais des hauts ,   J'avais des bas
                        Gm                         C
J'avais plus ou moins chaud Et toute la vie devant moi
             D#                   F
J'avais des hauts ,   J'avais des bas
                            Gm                C                 
Je crois que j'en voulais trop   J'ai même eu 
       F  
ce que je n'voulais pas 
   Gm     Gm      C       F                         
                  ce que je n'voulais pas    (x3)
   Gm     Gm      C       F

Couplet 2:
 Je restais enfermé            Ou errais pendant des jours
 Trop de chemins s'ouvraient   Trop de questions en retour
 Je n'avais pas tue mon père   Mais je ne me souvenais pas
 Ce qu'il me disait de faire   Ou ce qu'il ne disait pas

Refrain
 
Couplet 3:
 Chaque jour je me tenais prêt  Je guettais l'heure et la page
 Ou les eaux s'ouvriraient      Me laisseraient un passage
 L'espoir me faisait vivre      L'attente me rendait nerveux
 Je trouvais dans les livres    De quoi patienter un peu


Imprimer la tab Imprimer la tab

Commentez la partition de Des hauts, des bas