Cours de guitare Cours de guitare | Nouveautés | Top 100 | Tous les accords | Blog
# a b c d e f g h i j k l m n o p q r s t u v w x y z demander une tab

La bombe humaine tab


Tablature de la chanson « La bombe humaine » de Téléphone.

INTRO :

A                    A/E#                 F#m                 A7
e|--------0-----------|--------0-----------|--------2----------|--------0-----------|
B|------2------2---2--|------2------2---2--|------2-----2---2--|------2------2---2--|
G|----2----------2----|----2----------2----|----2---------2----|----0----------0----|
D|--2-----------------|--3-----------------|--4----------------|--2-----------------|
A|--------------------|--------------------|-------------------|--------------------|
E|--------------------|--------------------|-------------------|--------------------|
D                     F                    A                   A
e|--------2-----------|--------1-----------|--------0----------|--------0-----------|
B|------3------3---3--|------1------1---1--|------2------2---2-|------2------2---2--|
G|----2----------2----|----2----------2----|----2----------2---|----2----------2----|
D|--0-----------------|--3-----------------|--2----------------|--2-----------------|
A|--------------------|--------------------|-------------------|--------------------|
E|--------------------|--------------------|-------------------|--------------------|

A                    A/E#                 F#m                 A7
e|--------0-----------|--------0-----------|--------2----------|--------0-----------|
B|------2------2---2--|------2------2---2--|------2-----2---2--|------2------2---2--|
G|----2----------2----|----2----------2----|----2---------2----|----0----------0----|
D|--2-----------------|--3-----------------|--4----------------|--2-----------------|
A|--------------------|--------------------|-------------------|--------------------|
E|--------------------|--------------------|-------------------|--------------------|
 Je veux vous parler      de demain           En  fantée du monde elle  sera la fin je veux vous
  de l’arme                                       en
D                     F                    A                   A
e|--------2-----------|--------1-----------|--------0----------|--------0-----------|
B|------3------3---3--|------1------1---1--|------2------2---2-|------2------2---2--|
G|----2----------2----|----2----------2----|----2----------2---|----2----------2----|
D|--0-----------------|--3-----------------|--2----------------|--2-----------------|
A|--------------------|--------------------|-------------------|--------------------|
E|--------------------|--------------------|-------------------|--------------------|
  Parler                                       de      moi,                                            de    vous

A                    A/E#                 F#m                 A7
e|--------0-----------|--------0-----------|--------2----------|--------0-----------|
B|------2------2---2--|------2------2---2--|------2-----2---2--|------2------2---2--|
G|----2----------2----|----2----------2----|----2---------2----|----0----------0----|
D|--2-----------------|--3-----------------|--4----------------|--2-----------------|
A|--------------------|--------------------|-------------------|--------------------|
E|--------------------|--------------------|-------------------|--------------------|
 Je vois à l’intérieur    mages des couleurs, qui ne sont pas à moi     fois me font peur, sensa-
 Des i-                                           qui par-
D                     F                    A                   A
e|--------2-----------|--------1-----------|--------0----------|--------0-----------|
B|------3------3---3--|------1------1---1--|------2------2---2-|------2------2---2--|
G|----2----------2----|----2----------2----|----2----------2---|----2----------2----|
D|--0-----------------|--3-----------------|--2----------------|--2-----------------|
A|--------------------|--------------------|-------------------|--------------------|
E|--------------------|--------------------|-------------------|--------------------|
   Tions                    qui peuvent me rendre fou                                        Nos

[Battu jusqu’à la fin] :

PONT :
      B7
Nos sens sont nos fils
Nous pauvres marionnettes
       D                                                     F
Nos sens sont le chemin qui mène droit à nos têtes

REFRAIN :
    A
La bombe humaine
                 F
Tu la tiens dans ta main
    A
Tu as l’détonateur
           F
Juste à côté du cœur
      A
La bombe humaine
                    F
C’est toi elle t’appartient
   D                                                          F
Si tu laisses quelqu’un prendre en main ton destin
             A      Dm
C’est la fin
      A      Dm
La fin

COUPLET :
         A
Mon père ne dort plus
                  A/E#
Sans prendre ses calmants
      F#m
Maman ne travaille plus
               A7
Sans ses excitants
                    D
Quelqu’un leur vend
F                                 A
De quoi tenir le coup
Je suis un électron
Bombardé de protons
Le rythme de la ville
C’est ça mon vrai patron
Je suis chargé d’électricité

PONT :
Si par malheur au cœur
De l’accélérateur
J’rencontre une particule
Qui m’mette de sale humeur

A-G-F#-F
Faudrait pas que j’me laisse aller
Faudrait pas que j’me laisse aller
Etc…

REFRAIN :
La bombe humaine
C’est l’arme de demain
Enfantée du monde
Elle en sera la fin
La bombe humaine
C’est toi elle t’appartient
Si tu laisses quelqu’un
Prendre en main ton destin
X3


Imprimer la tab Imprimer la tab

2 commentaires »

  • luc :

    Merci ! ça répond parfaitement à ma demande.

  • Gilles :

    pas d’accord avec toi sur l’intro: juste sur 2 accords A et Dm avec basse de A, pour le reste je remplacerais le A/E# ( E# n’existe pas!c’est le F) par A5+ (quinte augmentée), le F#m par un A6(sixte)…le reste me semble ok, à part l’arpège mais ça le fait aussi! Bonne continuation!

Commentez la partition de La bombe humaine